» » »

Illumination Tabs (ver.1)

Artists:  A B C D E F G H I J K L M N O P Q R S T U V W X Y Z # 

Illumination Tabs (ver.1)

Paradise Lost
Rating:
0/5 (0 votes)

Tabs too difficult? Try these video lessons and learn fast.
                Tuning: Dropped D (D A D G B E)


Intro (Guitar1 - w/ Tremolo, light distortion)
E|--------------------------------------------------||
B|-------------6------------------------------------||
G|---3-6~~---6---6-5-5~~--5-6-8~~----6-5-3-3--------||
D|-3-------------------------------3----------------||
A|--------------------------------------------------||
D|--------------------------------------------------||

then Guitar 2 starts to play this 
E|--------------------------------------------------||
B|--------------------------------------------------||
G|--------------------------------------------------||
D|-8-8---8-88-11---11-1111--3-3-3-33-1--1-1-1-1-----||
A|-8-8---8-88-11---11-1111--3-3-3-33-1--1-1-1-1-----||
D|-8-8---8-88-11---11-1111--3-3-3-33-1--1-1-1-1-----||

Verse
Guitar 1
E|------------------------||
B|------------------------||
G|-3-3----3-3---3-3-------||
D|-3-3----3-3---3-3-------||
A|------------------------||
D|------------------------||

Guitar 2
E|-----------------------||
B|-----------------------||
G|--10/3-----------------||
D|-----------------------||
A|-----------------------||
D|-----------------------||

then Guitar 1 (background)
E|---------------------------------||
B|----11---------------------------||
G|-10~--10~--6-6-5-----------------||
D|---------------------------------||
A|---------------------------------||
D|---------------------------------||

Guitar 2(clean)
E|---------------------------------||
B|---------------------------------||
G|---------------------------------||
D|---------------------------------||
A|---------------------------------||
D|--10-10-10-10/8-8-3-3-3-3/6-6----||


Chorus
Guitar1 - w/ Tremolo, light distortion
E|--------------------------------------------------||
B|-------------6------------------------------------||
G|---3-6~~---6---6-5-5~~--5-6-8~~----6-5-3-3--------||
D|-3-------------------------------3----------------||
A|--------------------------------------------------||
D|--------------------------------------------------||

Guitar 2 (Distortion)
E|--------------------------------------------------||
B|--------------------------------------------------||
G|--------------------------------------------------||
D|-8-8---8-88-11---11-1111--3-3-3-33-1--1-1-1-1-----||
A|-8-8---8-88-11---11-1111--3-3-3-33-1--1-1-1-1-----||
D|-8-8---8-88-11---11-1111--3-3-3-33-1--1-1-1-1-----||

After chorus, guitar 1 plays this
E|---------------------------||
B|---4------4~---------------||
G|-3---3~~-----3~------------||
D|------------------4-4-3-3--||
A|---------------------------||
D|---------------------------||

Repeat verse

Repeat Chorus

then Guitar 1 plays this
E|--------------------------------------------------||
B|--------------------------------------------------||
G|-6~-6h8-3---10-10-8-3-8-10-8-3~~------------------||
D|--------------------------------------------------||
A|--------------------------------------------------||
D|--------------------------------------------------||


Guitar 2(clean)
E|---------------------------------||
B|---------------------------------||
G|---------------------------------||
D|---------------------------------||
A|---------------------------------||
D|--10-10-10-10/8-8-3-3-3-3/6-6----||

Solo

Guitar 1 (2x)
E|--------------------------------------------------||
B|--------------------------------------------------||
G|-3-3-5-5-6~-5~-6~-5~-6~-6h8-6-5~-6~-5~-6~-3~~-----||
D|--------------------------------------------------||
A|--------------------------------------------------||
D|--------------------------------------------------||

Guitar 2 (2x)
E|--------------------------------------------------||
B|--------------------------------------------------||
G|--------------------------------------------------||
D|-8-8---8-88-11---11-1111--3-3-3-33-1--1-1-1-1-----||
A|-8-8---8-88-11---11-1111--3-3-3-33-1--1-1-1-1-----||
D|-8-8---8-88-11---11-1111--3-3-3-33-1--1-1-1-1-----||

Repeat Chorus

End
Guitar 1 
E|--------------------------------------------------||
B|--------------------------------------------------||
G|-6~-6h8-3---10-10-8-3-8-10-8-3~~------------------||
D|--------------------------------------------------||
A|--------------------------------------------------||
D|--------------------------------------------------||

Guitar 2
E|--------------------------------------------------||
B|--------------------------------------------------||
G|--------------------------------------------------||
D|-8-8---8-88-11---11-1111--3-3-3-33-1--1-1-1-1-----||
A|-8-8---8-88-11---11-1111--3-3-3-33-1--1-1-1-1-----||
D|-8-8---8-88-11---11-1111--3-3-3-33-1--1-1-1-1-----||
            
Tabs too difficult? Try these video lessons and learn fast.




comments powered by Disqus
↑ Back to top | Tablatures and chords are parodies/interpretations of the original songs. You may use it for private study, scholarship, research or language learning purposes only