>
 >
Hallowed Land

Hallowed Land Bass Tabs

Paradise Lost - Hallowed Land chords, tabs, tablatures, lyrics

Guitar lessons | Add/correct | Request | Top 50 tabs Artists:  A B C D E F G H I J K L M N O P Q R S T U V W X Y Z 0-9

Hallowed Land Bass Tabs – Paradise Lost

CD, Sheet music, Poster

Do you like Hallowed Land? Share with your friends now
Bass TabsTabs
tune down

F||----------------|----------------|----------------|
C||----------------|----------------|----------------|
G||----------------|----------------|----------------|
D||----------------|----------------|----------------|


                                                      
--------------------------|--------------------------|
--------------------------|--------------------------|
--------------------------|--------------------------|
--2--2--2--2--2--2--2--2--|--0---0-0--0--0--0--0--0--|


                                                       
--------------------------|---------------------------|
--------------------------|---------------------------|
--------------------------|--2h4--4-4--4--4--4--4--4--|
--4---4-4--4--4--4--4--4--|---------------------------|


                                                       
---------------------------|--------------------------|
---------------------------|--------------------------|
--2h4--4-4--4--4--4--4--4--|--------------------------|
---------------------------|--0---0-0--0--0--0--0--0--|


                                                       
--------------------------|---------------------------|
--------------------------|---------------------------|
--------------------------|--2h4--4-4--4--4--4--4--4--|
--4---4-4--4--4--4--4--4--|---------------------------|


                                                                              
---------------------------|------------------------|------------------------|
---------------------------|------------------------|------------------------|
--2h4--4-4--4--4--4--4--4--|------------------------|------------------------|
---------------------------|--0---0-0--0----0----0--|--2---2-2--2----2----2--|


                                                                         
-----------------------|-----------------------|------------------------|
------------------2----|--------------------2--|------------------------|
--2h4--4-4-------------|--2h4--4-4-------------|------------------------|
-----------------------|-----------------------|--0---0-0--0----0----0--|


                                                                             
------------------------|-----------------------|---------------------------|
------------------------|------------------2----|---------------------------|
------------------------|--2h4--4-4-------------|--2h-4--4-4-4-4------------|
--2---2-2--2----2----2--|-----------------------|----------------4---2---0--|


                                                                          
------------------------|------------------------|-----------------------|
------------------------|------------------------|------------------2----|
------------------------|------------------------|--2h4--4-4-------------|
--0---0-0--0----0----0--|--2---2-2--2----2----2--|-----------------------|


                                                                          
-----------------------|------------------------|------------------------|
--------------------2--|------------------------|------------------------|
--2h4--4-4-------------|------------------------|------------------------|
-----------------------|--0---0-0--0----0----0--|--2---2-2--2----2----2--|


                                                                               
-----------------------|---------------------------|--------------------------|
------------------2----|---------------------------|--------------------------|
--2h4--4-4-------------|--2h-4--4-4-4-4------------|--------------4--4--4--4--|
-----------------------|----------------4---2---0--|--5--5--5--5--------------|


                                                      
--------------------------|--------------------------|
--------------------------|--------------------------|
--------------------------|--------------2--2--2--2--|
--2--2--2--2--0--0--0--0--|--4--4--4--4--------------|


                                                      
--------------------------|--------------------------|
--------------------------|--------------------------|
--4--4--4--4--4--4--4--4--|--0--0--0--0--------------|
--------------------------|--------------2--2--2--2--|


                                                      
--------------------------|--------------------------|
--------------------------|--------------------------|
--4--4--4--4--------------|--7--7--7--7--------------|
--------------4--4--4--4--|--------------7--7--7--7--|


                                                      
--------------------------|--------------------------|
--------------------------|--------------------------|
--------------------------|--------------------------|
--9--9--9--9--9--9--9--9--|--5--5--5--5--5--5--5--5--|


                                                      
--------------------------|--------------------------|
--------------------------|--------------------------|
--4--4--4--4--4--4--4--4--|--------------------------|
--------------------------|--2--2--2--2--2--2--2--2--|


                                                      
--------------------------|--------------------------|
-----------------------2--|--------------------------|
--------------------0-----|--------------------------|
--2--2--2--2--2--4--------|--5--5--5--5--5--5--5--5--|


                                                      
--------------------------|--------------------------|
--------------------------|--------------------------|
--4--4--4--4--4--4--4--4--|--------------------------|
--------------------------|--2--2--2--2--2--2--2--2--|


                                                      
--------------------------|--------------------------|
--------------------------|--------------------------|
--------------------------|--------------------------|
--2--2--2--2--2--2--2--2--|--0---0-0--0--0--0--0--0--|


                                                       
--------------------------|---------------------------|
--------------------------|---------------------------|
--------------------------|--2h4--4-4--4--4--4--4--4--|
--4---4-4--4--4--4--4--4--|---------------------------|


                                                       
---------------------------|--------------------------|
---------------------------|--------------------------|
--2h4--4-4--4--4--4--4--4--|--------------------------|
---------------------------|--0---0-0--0--0--0--0--0--|


                                                       
--------------------------|---------------------------|
--------------------------|---------------------------|
--------------------------|--2h4--4-4--4--4--4--4--4--|
--4---4-4--4--4--4--4--4--|---------------------------|


                                                                              
---------------------------|------------------------|------------------------|
---------------------------|------------------------|------------------------|
--2h4--4-4--4--4--4--4--4--|------------------------|------------------------|
---------------------------|--0---0-0--0----0----0--|--2---2-2--2----2----2--|


                                                                         
-----------------------|-----------------------|------------------------|
------------------2----|--------------------2--|------------------------|
--2h4--4-4-------------|--2h4--4-4-------------|------------------------|
-----------------------|-----------------------|--0---0-0--0----0----0--|


                                                                             
------------------------|-----------------------|---------------------------|
------------------------|------------------2----|---------------------------|
------------------------|--2h4--4-4-------------|--2h-4--4-4-4-4------------|
--2---2-2--2----2----2--|-----------------------|----------------4---2---0--|


                                                                          
------------------------|------------------------|-----------------------|
------------------------|------------------------|------------------2----|
------------------------|------------------------|--2h4--4-4-------------|
--0---0-0--0----0----0--|--2---2-2--2----2----2--|-----------------------|


                                                                          
-----------------------|------------------------|------------------------|
--------------------2--|------------------------|------------------------|
--2h4--4-4-------------|------------------------|------------------------|
-----------------------|--0---0-0--0----0----0--|--2---2-2--2----2----2--|


                                                                               
-----------------------|---------------------------|--------------------------|
------------------2----|---------------------------|--------------------------|
--2h4--4-4-------------|--2h-4--4-4-4-4------------|--------------4--4--4--4--|
-----------------------|----------------4---2---0--|--5--5--5--5--------------|


                                                      
--------------------------|--------------------------|
--------------------------|--------------------------|
--------------------------|--------------2--2--2--2--|
--2--2--2--2--0--0--0--0--|--4--4--4--4--------------|


                                                      
--------------------------|--------------------------|
--------------------------|--------------------------|
--4--4--4--4--4--4--4--4--|--0--0--0--0--------------|
--------------------------|--------------2--2--2--2--|


                                                      
--------------------------|--------------------------|
--------------------------|--------------------------|
--4--4--4--4--------------|--7--7--7--7--------------|
--------------4--4--4--4--|--------------7--7--7--7--|


                                                      
--------------------------|--------------------------|
--------------------------|--------------------------|
--------------------------|--------------------------|
--9--9--9--9--9--9--9--9--|--5--5--5--5--5--5--5--5--|


                                                      
--------------------------|--------------------------|
--------------------------|--------------------------|
--4--4--4--4--4--4--4--4--|--------------------------|
--------------------------|--2--2--2--2--2--2--2--2--|


                                                      
--------------------------|--------------------------|
-----------------------2--|--------------------------|
--------------------0-----|--------------------------|
--2--2--2--2--2--4--------|--5--5--5--5--5--5--5--5--|


                                                      
--------------------------|--------------------------|
--------------------------|--------------------------|
--4--4--4--4--4--4--4--4--|--------------------------|
--------------------------|--2--2--2--2--2--2--2--2--|


                                                      
--------------------------|--------------------------|
--------------------------|--------------------------|
--------------------------|--------------------------|
--2--2--2--2--2--2--2--2--|--0---0-0--0--0--0--0--0--|


                                                       
--------------------------|---------------------------|
--------------------------|---------------------------|
--------------------------|--2h4--4-4--4--4--4--4--4--|
--4---4-4--4--4--4--4--4--|---------------------------|


                                                       
---------------------------|--------------------------|
---------------------------|--------------------------|
--2h4--4-4--4--4--4--4--4--|--------------------------|
---------------------------|--0---0-0--0--0--0--0--0--|


                                                       
--------------------------|---------------------------|
--------------------------|---------------------------|
--------------------------|--2h4--4-4--4--4--4--4--4--|
--4---4-4--4--4--4--4--4--|---------------------------|


                                                       
---------------------------|--------------------------|
---------------------------|--------------------------|
--2h4--4-4--4--4--4--4--4--|--------------4--4--4--4--|
---------------------------|--5--5--5--5--------------|


                                                      
--------------------------|--------------------------|
--------------------------|--------------------------|
--------------------------|--------------2--2--2--2--|
--2--2--2--2--0--0--0--0--|--4--4--4--4--------------|


                                                      
--------------------------|--------------------------|
--------------------------|--------------------------|
--4--4--4--4--4--4--4--4--|--0--0--0--0--------------|
--------------------------|--------------2--2--2--2--|


                                                      
--------------------------|--------------------------|
--------------------------|--------------------------|
--4--4--4--4--------------|--7--7--7--7--------------|
--------------4--4--4--4--|--------------7--7--7--7--|


                                                      
--------------------------|--------------------------|
--------------------------|--------------------------|
--------------------------|--------------------------|
--9--9--9--9--9--9--9--9--|--0--0--0--0--0--0--0--0--|


                                                      
--------------------------|--------------------------|
--------------------------|--------------------------|
--------------------------|--4--4--4--4--4--4--4--4--|
--4--4--4--4--4--4--4--4--|--------------------------|


                                                      
--------------------------|--------------------------|
--------------------------|--2--2--2--2--2--2--2--2--|
--------------------------|--------------------------|
--2--2--2--2--2--2--2--2--|--------------------------|


                                                      
--------------------------|--------------------------|
--------------------------|--------------------------|
--------------------------|--4--4--4--4--4--4--4--4--|
--4--4--4--4--4--4--4--4--|--------------------------|


                                                      
--------------------------|--------------------------|
--------------------------|--2--2--2--2--2--2--2--2--|
--------------------------|--------------------------|
--2--2--2--2--2--2--2--2--|--------------------------|


                                                      
--------------------------|--------------------------|
--------------------------|--------------------------|
--------------------------|--4--4--4--4--4--4--4--4--|
--4--4--4--4--4--4--4--4--|--------------------------|


                                                      
--------------------------|--------------------------|
--------------------------|--------------------------|
--------------------------|--------------------------|
--2--2--2--2--2--2--2--2--|--0--0--0--0--0--0--0--0--|


                                                      
--------------------------|--------------------------|
--------------------------|--------------------------|
--------------------------|--4--4--4--4--4--4--4--4--|
--4--4--4--4--4--4--4--4--|--------------------------|


                                                      
--------------------------|--------------------------|
--------------------------|--------------------------|
--------------------------|--------------4--4--4--4--|
--2--2--2--2--2--2--2--2--|--5--5--5--5--------------|


                                                      
--------------------------|--------------------------|
--------------------------|--------------------------|
--------------------------|--------------2--2--2--2--|
--2--2--2--2--0--0--0--0--|--4--4--4--4--------------|


                                                      
--------------------------|--------------------------|
--------------------------|--------------------------|
--4--4--4--4--4--4--4--4--|--0--0--0--0--------------|
--------------------------|--------------2--2--2--2--|


                                                      
--------------------------|--------------------------|
--------------------------|--------------------------|
--4--4--4--4--------------|--7--7--7--7--------------|
--------------4--4--4--4--|--------------7--7--7--7--|


                                                      
--------------------------|--------------------------|
--------------------------|--------------------------|
--------------------------|--------------4--4--4--4--|
--9--9--9--9--9--9--9--9--|--5--5--5--5--------------|


                                                      
--------------------------|--------------------------|
--------------------------|--------------------------|
--------------------------|--------------2--2--2--2--|
--2--2--2--2--0--0--0--0--|--4--4--4--4--------------|


                                                      
--------------------------|--------------------------|
--------------------------|--------------------------|
--4--4--4--4--4--4--4--4--|--0--0--0--0--------------|
--------------------------|--------------2--2--2--2--|


                                                                   
--------------------------|-------------------|-------------------|
--------------------------|-------------------|-------------------|
--4--4--4--4--------------|--7----------------|-------------------|
--------------4--4--4--4--|-------------------|--7----------------|


                                          
--6-----------------|-------------------||
--------------------|-------------------||
--------------------|--4----------------||
-----------4--------|-------------------||





Comments


Popular Paradise Lost tabs & chords
Shadow Kings 1 Bass Tabs
Eternal 1 Tabs
Master Of Misrule Tabs
Mercy Tabs
Pity The Sadness 1 Tabs
Remebrance 1 Tabs
Shades Of God Tabs
Soul Corageous Tabs
The Rise Of Denial Tabs
To The Darkness Tabs


Song lyrics



↑ Back to top | Tablatures and chords are parodies/interpretations of the original songs. You may use it for private study, scholarship, research or language learning purposes only
© 2014 AZChords.com Contact us | Privacy policy | DMCA | Add/correct tabs | Request tabs | Top 50 tabs