>
 >
Frozen Ilusion

Frozen Ilusion Guitar Tabs

Paradise Lost - Frozen Ilusion chords, tabs, tablatures, lyrics

Guitar lessons | Add/correct | Request | Top 50 tabs Artists:  A B C D E F G H I J K L M N O P Q R S T U V W X Y Z 0-9

Frozen Ilusion Guitar Tabs – Paradise Lost

CD, Sheet music, Poster

Do you like Frozen Ilusion? Share with your friends now
Tabs
frozen illusion
                            


Copyright (c)  (Peaceville) (1990)
Version 1.0 - (05.06.04)

any questions or corrections- e-mail me


Tune down to B (2.5 steps)

 ~         bend the note normal

 ~~~~~     bend the note rapidly

 X         muffled string


Intro

Riff 1 - 2 times

   guitar 1            
B |----------------------------------------------------------------------|
F#|----------------------------------------------------------------------|
D |----------------------------------------------------------------------|
A |--7-----------------------------------7--6----------------------------|
E |--5-----------4-----------------3--4--5--4--3h4-3h4-3h4--2h3-2h3-2h3--|
B |--------------2-----------------1--2--5--4----------------------------|        

    guitar 2
B |----------------------------------------------------------------------|
F#|----------------------------------------------------------------------|
D |---------------------------------------------------------4h5-4h5-4h5--|
A |--0---3---2---------------------------7--6----------------------------|
E |--------------4--0--3--4--4h5---3--4--5--4--3h4-3h4-3h4---------------|
B |--------------------------------1--2--5--4----------------------------|


  Fill 1

   guitar 1
B |----------------------------------------------------------------------------|
F#|----------------------------------------------------------------------------|
D |----------------------------------------------------------------------------|
A |----------------------------------------------------------------------------|
E |-3-3------------3-------3-3-3----------3-3------------3-------3-3-3---------|
B |-1-1------------1-------1-1-1----------1-1------------1-------1-1-1---------|
    . .            .       . . .          . .            .       . . .   p.m.

   guitar 2
B |----------------------------------------------------------------------------|
F#|----------------------------------------------------------------------------|
D |----------------------------------------------------------------------------|
A |----------------------------------------------------------------------------|
E |----3h4p3h4p3----3h4p3-------3h4p3h4p3-----3h4p3h4p3----3h4p3------3h4p3h4p3|
B |----------------------------------------------------------------------------|

   guitar 1
B |----------------------------------------------------------------------------|
F#|----------------------------------------------------------------------------|
D |----------------------------------------------------------------------------|
A |----------------------------------------------------------------------------|
E |-3-3------------3-------3-3-3----------3-3------------3-------3-3-3---3---3-|
B |-1-1------------1-------1-1-1----------1-1------------1-------1-1-1---1---1-|
    . .            .       . . .          . .            .       . . .   .  p.m.

   guitar 2                                                         end Fill 1 
B |----------------------------------------------------------------------------|
F#|----------------------------------------------------------------------------|
D |----------------------------------------------------------------------------|
A |----------------------------------------------------------------------------|
E |----3h4p3h4p3----3h4p3-------3h4p3h4p3-----3h4p3h4p3----3h4p3---------------|
B |----------------------------------------------------------------------------|


   Riff 2 - 2 times - I lay the darkest room...
B |------------------------------------------------------------|
F#|------------------------------------------------------------|
D |------------------------------------------------------------|
A |--------------------------------------------------3h4p3-----|
E |--3----5----4-------3h4p3-------3----5----4---3h4-----------|
B |--1----3----2---3h4-------------1----3----2-----------------|


   Riff 3 - 2 times
B |-----------------------------------------------|
F#|-----------------------------------------------|
D |----------------------------------2h3p2--------|
A |------3---6-6-7------------4-4-3--------3------|
E |--4---1---4-4-5----4---3---2-2-1---------------|
B |--2----------------2---1-----------------------|


   Riff 2 - 2 times - the chill runs through my bones ...
B |------------------------------------------------------------|
F#|------------------------------------------------------------|
D |------------------------------------------------------------|
A |--------------------------------------------------3h4p3-----|
E |--3----5----4-------3h4p3-------3----5----4---3h4-----------|
B |--1----3----2---3h4-------------1----3----2-----------------|


   Riff 3 - 1 time
B |-----------------------------------------------|
F#|-----------------------------------------------|
D |----------------------------------2h3p2--------|
A |------3---6-6-7------------4-4-3--------3------|
E |--4---1---4-4-5----4---3---2-2-1---------------|
B |--2----------------2---1-----------------------|


   Riff 3a - 1 time
B |-----------------------------------------------|
F#|-----------------------------------------------|
D |-----------------------------------------------|
A |------3---6-6-7------------4-4-3---------------|
E |--4---1---4-4-5----4---3---2-2-1---------------|
B |--2----------------2---1-----------------------|
                                  . p.m. 

  Riff 4 - 2 times - the walls close on my existence

   guitar 1 
B |-----------------------------------------------|
F#|-----------------------------------------------|
D |-----------------------------------------------|
A |----------8------------------------------------|
E |--2-------6--------4---5---3----X--X--X--X-----|
B |--0----------------2---3---1----X--X--X--X-----|


  Riff 4a - 2 times

   guitar 1 
B |-----------------------------------------------|
F#|-----------------------------------------------|
D |-----------------------------------------------|
A |----------8------------------------------------|
E |--2-------6--------4---5---3----X--X--X--X-----|
B |--0----------------2---3---1----X--X--X--X-----|

   guitar 2 
B |--------------------------------------------13~|
F#|-----------------------------------------------|
D |-----------------------------------------------|
A |-------------------4-4-5-5-3-3-3-3-4-5-3-3-3---|
E |--7-7-7-7-6-6-6-6------------------------------|
B |-----------------------------------------------|


  Riff 5 - 1 time - unreal illusions re-appear
B |----------------------------------------------------------------------------|
F#|----------------------------------------------------------------------------|
D |----------------------------------------------------------------------------|
A |--------------------8--8-8---8---8------------------------------------------|
E |--2--2-2---2--2-2---6--6-6---6---6---4--5-------------------4--4-4---5--5-5-|
B |--0--0-0---0--0-0--------------------2--3--1~~~1~~~1~~~1~~~-2--2-2---3--3-3-|

   darkness increases still 
B |----------------------------------------------------------------------------|
F#|----------------------------------------------------------------------------|
D |----------------------------------------------------------------------------|
A |--------------------8--8-8---8---8------------------------------------------|
E |--2--2-2---2--2-2---6--6-6---6---6---4--5-------------------4--4-4---5------|
B |--0--0-0---0--0-0--------------------2--3--1~~~1~~~1~~~1~~~-2--2-2---3------|
                                                                        . p.m.

   Riff 6 - 1 time                        frozen illusion
B |---------------------------------------------------------|
F#|---------------------------------------------------------|
D |---------------------------------------------------------|
A |---------------------------------------------------------|
E |--5~~~-8~~~-7~~~-4~~~------2~~~----------X--X--X--X------|
B |----------------------1~~~------3~~~~----X--X--X--X------|


  Riff 6a - 4 times with guitarsolo
B |---------------------------------------------------------|
F#|---------------------------------------------------------|
D |---------------------------------------------------------|
A |--7----10---9----6---------4-----------------------------|
E |--5----8----7----4----3----2----5--------X--X--X--X------|
B |----------------------1---------3--------X--X--X--X------|


back to Riff 1 - 2 times

   guitar 1  
B |----------------------------------------------------------------------|
F#|----------------------------------------------------------------------|
D |----------------------------------------------------------------------|
A |--7-----------------------------------7--6----------------------------|
E |--5-----------4-----------------3--4--5--4--3h4-3h4-3h4--2h3-2h3-2h3--|
B |--------------2-----------------1--2--5--4----------------------------|        

    guitar 2
B |----------------------------------------------------------------------|
F#|----------------------------------------------------------------------|
D |---------------------------------------------------------4h5-4h5-4h5--|
A |--0---3---2---------------------------7--6----------------------------|
E |--------------4--0--3--4--4h5---3--4--5--4--3h4-3h4-3h4---------------|
B |--------------------------------1--2--5--4----------------------------|

          
   Riff 2 - 2 times - I lay the darkest room...
B |------------------------------------------------------------|
F#|------------------------------------------------------------|
D |------------------------------------------------------------|
A |--------------------------------------------------3h4p3-----|
E |--3----5----4-------3h4p3-------3----5----4---3h4-----------|
B |--1----3----2---3h4-------------1----3----2-----------------|


   Riff 3 - 2 times
B |-----------------------------------------------|
F#|-----------------------------------------------|
D |----------------------------------2h3p2--------|
A |------3---6-6-7------------4-4-3--------3------|
E |--4---1---4-4-5----4---3---2-2-1---------------|
B |--2----------------2---1-----------------------|


   Riff 2 - 2 times - the chill runs through my bones ...
B |------------------------------------------------------------|
F#|------------------------------------------------------------|
D |------------------------------------------------------------|
A |--------------------------------------------------3h4p3-----|
E |--3----5----4-------3h4p3-------3----5----4---3h4-----------|
B |--1----3----2---3h4-------------1----3----2-----------------|


   Riff 3 - 2 times
B |-----------------------------------------------|
F#|-----------------------------------------------|
D |----------------------------------2h3p2--------|
A |------3---6-6-7------------4-4-3--------3------|
E |--4---1---4-4-5----4---3---2-2-1---------------|
B |--2----------------2---1-----------------------|

 Outro

 Riff 7 - 1 time

   guitar 1
B |----------------------------------------------------------------------------|
F#|----------------------------------------------------------------------------|
D |---------------------------------------------------------4---8--7-----------|
A |-----------------------------------3--3/6---6--5---6--5------------7---4----|
E |-3--3/6---6--5---6--5---5h6p5------1--1/4---4--3----------------------------|
B |-1--1/4---4--3--------------------------------------------------------------|

    guitar 2
B |----------------------------------------------------------------------------|
F#|--------------------------------------------------------12--16-15-----------|
D |--------------------------------------------------13-12------------14--11~~-|
A |-----------------13-12--12h13p12---8--8/11--11-10---------------------------|
E |-8--8/11--11-10-------------------------------------------------------------|
B |----------------------------------------------------------------------------|

   guitar 1
B |----------------------------------------------------------------------------|
F#|----------------------------------------------------------------------------|
D |---------------------------------------------------------4---8--7--9--6--11-|
A |-----------------------------------3--3/6---6--5---6--5---------------------|
E |-3--3/6---6--5---6--5---5h6p5------1--1/4---4--3----------------------------|
B |-1--1/4---4--3--------------------------------------------------------------|

    guitar 2
B |----------------------------------------------------------------------------|
F#|--------------------------------------------------------12--16-15--17-14-19~|
D |--------------------------------------------------13-12---------------------|
A |-----------------13-12--12h13p12---8--8/11--11-10---------------------------|
E |-8--8/11--11-10-------------------------------------------------------------|
B |----------------------------------------------------------------------------|

   guitar 1
B |-----------|
F#|-----------|
D |-----------|
A |-----------|
E |----3------|
B |----1------|

    guitar 2
B |-----------|
F#|-----------|
D |-----------|
A |-----------|
E |----3------|
B |----1------|

end.





Comments


Popular Paradise Lost tabs & chords
No Reason Bass Tabs
Something Real Chords
Breeding Fear Tabs
Lydia Tabs
Mercy Tabs
Rotting Misery Tabs
Say Just Words Tabs
The Last Time Tabs
This Cold Life Tabs
Xavier Tabs


Song lyrics



↑ Back to top | Tablatures and chords are parodies/interpretations of the original songs. You may use it for private study, scholarship, research or language learning purposes only
© 2014 AZChords.com Contact us | Privacy policy | DMCA | Add/correct tabs | Request tabs | Top 50 tabs