>
 >
Daylight Torn

Daylight Torn Guitar Tabs

Paradise Lost - Daylight Torn chords, tabs, tablatures, lyrics

Guitar lessons | Add/correct | Request | Top 50 tabs Artists:  A B C D E F G H I J K L M N O P Q R S T U V W X Y Z 0-9

Daylight Torn Guitar Tabs – Paradise Lost

CD, Sheet music, Poster

Do you like Daylight Torn? Share with your friends now
Tabs
Paradise Lost - Daylight Torn

Gtr tuned to D

h - hammer on
p - pull off
b - bend string up
r - release bend
/ - slide up
 - slide down
v - vibrato (sometimes written as ~)
t - right hand tap
x - play 'note' with heavy damping
()- Notes in brackets indicate previous note bend

GTR Lead Intro


D-------------------------------------------------------------------------------------------|
A-15----13(15)13-11-13-11-------------------------------------------------------------------|
F-------------------------12---12(14)12-10--------------------------------------------------|
C------------------------------------------12(14)12-10----10--12(14)12-10-------------------|
G------------------------------------------------------12-----------------10(12)10-8-10-----|
D---------------------------------------------------------------------------------------10--|

Riff 1

D----------------------------------------------------------------------|
A----------------------------------------------------------------------|
F---------------8----8------------------5----5-------------------------|
C---------------8----8------------------5----5------------------4----5-|
G---------7-----6----6------------7-----3----3------------7-----4----5-|
D-0-0-0-0---0-0-----------0-0-0-0---0-0-----------0-0-0-0---0-0-2----3-|


Riff 2

D--------------------------------------------------------|
A--------------------------------------------------------|
F--------------------------3--33333-3-33333--------------|
C--------------------2-----3--33333-3-33333-----3-2------|
G-2-22222-22222-2222---3-2-1--1111101-11111-0-3-----3----|
D-0-00000-00000-0000----------------------------------3--|

Riff 3

D-----------------------------|
A-----------------------------|
F---------------77777-544444--|
C-2-2222-455555-77777-544444--|
G-2-2222-455555-55555-322222--|
D-0-0000-233333---------------|


Riff 4

D---------------------------|
A---------------------------|
F---------------------------|
C----------5----------------|
G-2-2-22-2-5---2-22-----5-7-|
D-0-0-00-0-3---0-00-057-----|


Riff 5

D-----------------------------------------------------------|
A--------8-7-8-10-8-7---------------------------------------|
F-2-2-5---------------10-10-9-------------------------------|
C-2-2-5---------------10-10-9--10-9-7-7---------------------|
G-0-0-3---------------8--8--7-----------10-7--10-9-7-7------|
D------------------------------------------------------10-7-|

E1

D----------|
A----------|
F----------|
C-2------2-|
G-2------2-|
D-0------0-|


Riff 6

D----------------------------------------------7-12--10-7-10-10-12------7-12--10-7-10-10-12-|
A-------------------------------------------------------------------------------------------|
F-----------------7-------------------7-----------------------------------------------------|
C-------------------------------------------------------------------------------------------|
G-----2-------------------2---------------7-7-----------------------7-7---------------------|
D-0-0---3--3-2-3------0-0---3--3-2-3--------------------------------------------------------|

Riff 7                Riff 7 Arpeggio

D------------------------------------|
A------------------------------------|
F-------44---------------8-----8-----|
C-------44-55-4-4------9-----9-----9-|
G-22-22-22-55-4-4----9-----9-----9---|
D-00-00----33-2-2--------------------|

Riff 8

D---------------------------|
A---------------------------|
F---------------------------|
C---------------------------|
G--------------7-----10---9-|
D--8-----4------------------|

Riff 9                          Riff 9 Arpeggio

D-----------------------------------------------|
A-----------------------------------5---5-------|
F--------------9-----12---11------4---4---4---4-|
C-10-----6-----9-----12---11----7-----------7---|
G-10-----6-----7-----10---9---------------------|
D-8------4--------------------------------------|

Solo 1

D-----------------------------------------19----------------------|
A-----------------------------------17--------17------------------|
F-7-----12--11--14-11-12-11---9-------------------15-14-----------|
C-------------------------------------------------------15--14----|
G---------------------------------------------------------------7-|
D-----------------------------------------------------------------|

D----------------------------------15-17----------------10----------------|
A-------------------------13-15-17-------17-17----------10(12)--10-12-10--|
F-------------------12-14----------------------16-------------------------|
C-------------12-14-------------------------------------------------------|
G-------12-15-------------------------------------------------------------|
D-12-15-------------------------------------------------------------------|


D---------------------------15-15--15-15--15-15--15-15--15--15----|
A-8-8--8-8--8-8--8-8--8--8-------------------------------------17-|
F-----------------------------------------------------------------|
C-----------------------------------------------------------------|
G-----------------------------------------------------------------|
D-----------------------------------------------------------------|

E2

D---
A---
F---
C-2-
G-2-
D-0-


Acoustic Interlude


D----------0-----------------0-----------------------------------3-----2-----0----0-----|
A----1-0-----0-1-0-----1-0------0-1-0--------0-------0-------0-----0-----0-----0----0---|
F--------2-----------------2---------------2---2---2---0---0---0-----0-----0-----0----0-|
C----------------------------------------0-------3-------2------------------------------|
G--0------------------------------------------------------------------------------------|
D--------------------3------------------------------------------------------------------|


D----------0-----------------0-----------------------------------3-----2-----0----0-----|
A----1-0-----0-1-0-----1-0------0-1-0--------0-------0-------0-----0-----0-----0----0---|
F--------2-----------------2---------------2---2---2---0---0---0-----0-----0-----0----0-|
C----------------------------------------0-------3-------2------------------------------|
G--0------------------------------------------------------------------------------------|
D--------------------3------------------------------------------------------------------|

D---------1----------------1--------------0-------------0-----0-----|
A-----3-----3---3------1-----1---1------1---1---010--1----1-----1---|
F---2---------2------2---------2------2-------2----2--------2-----2-|
C-0----------------3----------------2-------------------------------|
G-------------------------------------------------------------------|
D-------------------------------------------------------------------|


D---------1----------------1--------------0-------------0-----0-----|
A-----3-----3---3------1-----1---1------1---1---010--1----1-----1---|
F---2---------2------2---------2------2-------2----2--------2-----2-|
C-0----------------3----------------2-------------------------------|
G-------------------------------------------------------------------|
D-------------------------------------------------------------------|


D-----------3---------------0--------3----3----3---2----2----2---|
A------1------1---------0-----0---0----0----0----0---0----0----0-|
F----0----------0-----0---------0--------0----0--------0----0----|
C----------------------------------------------------------------|
G--3--------------3-2--------------------------------------------|
D-----------------------------------(3)-----------(2)------------|


D-----------3---------------0--------3----3----3---2----2----2---|
A------1------1---------0-----0---0----0----0----0---0----0----0-|
F----0----------0-----0---------0--------0----0--------0----0----|
C----------------------------------------------------------------|
G--3--------------3-2--------------------------------------------|
D-----------------------------------(3)-----------(2)------------|


D---------1----------------1--------------0-------------0-----0------|
A-----3-----3---3------1-----1---1------1---1---010---1----1-----1---|
F---2---------2------2---------2------2-------2-----2--------2-----2-|
C-0----------------3----------------2--------------------------------|
G--------------------------------------------------------------------|
D--------------------------------------------------------------------|


D---------1----------------1--------------0-----------|
A-----3-----3---3------1-----1---1------1---1---010---|
F---2---------2------2---------2------2-------2-----2-|
C-0----------------3----------------2-----------------|
G-----------------------------------------------------|
D-----------------------------------------------------|

D-----0000-----0000-----0000-----0000-----0000-----0000-----0000-----0000-|
A-11111111-----0000-11111111-----0000-11111111-----0000-11111111-----0000-|
F-22222222-11111111-22222222-11111111-22222222-11111111-22222222-11111111-|
C-22222222-22222222-22222222-22222222-22222222-22222222-22222222-22222222-|
G-00000000-22222222-00000000-22222222-00000000-22222222-00000000-22222222-|
D----------00000000----------00000000----------00000000----------00000000-|


Solo 2 (Beginning whammybar)

D--------17-19-22-----------------------------------------------------|
A---------------------------------------------------------------------|
F---------------------------------------------------------------------|
C-----------------------------------------12-14-14(16)14-12-14-12-----|
G-----------------------12-14-14-15-14-12-------------------------14--|
D-0---------------12-15-----------------------------------------------|


D-------------------------15-15-15-17-15----17-15-|
A-------------------15-17----------------17-------|
F-------------14-16-------------------------------|
C-------14-17-------------------------------------|
G-14-17-------------------------------------------|
D-------------------------------------------------|

 
                                                              
D-----------------------------------------------------------19-17-15-------19-17-15-------|
A----------------------------------------------------17--15----------17-15----------17-15-|
F-9-9999999---------------------------------------9---------------------------------------|
C-----------10-12-10-9-9-10-9-7------------5-7--------------------------------------------|
G--------------------------------------5-7-----7------------------------------------------|
D--------------------------------7-5-7----------------------------------------------------|



D-19-17-15-------19-17-15-------19-17-15-------19-17-15-------19-17-15--------------------------|
A----------17-15----------17-15----------17-15----------17-15----------17-15--------------------|
F----------------------------------------------------------------------------14-15-14-12-14(16)-|
C-----------------------------------------------------------------------------------------------|
G-----------------------------------------------------------------------------------------------|
D-----------------------------------------------------------------------------------------------|


D-------------------------------------------------------------------------15-12-------15-12-------|
A-------------------------------------------------------------------------------13-12-------13-12-|
F-12-14-12-9--9-----9-12-9---9-12-9---9-12-9---9-12-9---------------------------------------------|
C----------------9---------9--------9--------9--------9-------------12-14-------------------------|
G-------------------------------------------------------------12-15-------------------------------|
D-------------------------------------------------------12-15-------------------------------------|



D-15-12---------------------|
A-------13-12---------------|
F-------------14(16)14-12-9-|
C---------------------------|
G---------------------------|
D---------------------------|


Riff 10

D--------------------------------------------------------------------------------------|
A--------------------------------------------------------------------------------------|
F-------------------------------------------------9----7--------------9----7-----------|
C-------------------------------------------------9----7----7----5----9----7----7----5-|
G-2-2---2-----5-4-5-7-----2-2---2-----5-4-5-7-----7----5----7----5----7----5----7----5-|
D-0-0-----3---3-2-3-5-----0-0-----3---3-2-3-5---------------5----3--------------5----3-|


Riff 11

D-------------------------------------------------------------------------------------------------------------|
A-------------------------------------------------------------------------------------------------------------|
F-------------------------------9-9-7-------------------------------5-5-4-------------------------------------|
C-------------------------------9-9-7-------------------------------5-5-4-2-2-5-7-5-2-2-5-7-5-2-2-5-7-5-------|
G-2-2-5-7-5-2-2-5-7-5-2-2-5-7-5-7-7-5-2-2-5-7-5-2-2-5-7-5-2-2-5-7-5-3-3-2-0-0-------0-0-------0-0-------5-5-4-|
D-0-0-------0-0-------0-0-------------0-0-------0-0-------0-0-------------------------------------------3-3-2-|


Riff 12

D---------------------------|
A---------------------------|
F---------------------------|
C--------5------------------|
G-2----7----------5-7-------|
D-0--------7---5------3(4)3-|


Riff 13

D--------------------------|
A--------------------------|
F-99-7-99-7-99-7-12-12-7-9-|
C-99-7-99-7-99-7-12-12-7-9-|
G-77-5-77-5-77-5-10-10-5-7-|
D--------------------------|


Song Layout

GTR Lead Intro *2
Riff 1 *1
Riff 2 *2
Riff 3 *2
Riff 2 *2 Verse 1
Riff 3 *2
Riff 2 *2 Verse 2
Riff 3 *2
Riff 4 *4
Riff 5 *2
Riff 2 *2 Verse 3
Riff 3 *2
Riff 4 *4
Riff 5 *2
E1
Riff 6 *2
Riff 7 *4 with Riff 7 Arpeggio
Riff 8 *1
Riff 9 *4 with Riff 9 Arpeggio
Riff 7 *8 with Solo 1
E2
Acoustic Interlude
Riff 10 *2 with Solo 2
Riff 1 *1
Riff 2 *2
Riff 11 *2 Verse 4
Riff 12 *4
Riff 4 *2
Riff 5 *1
Riff 13 *1





Comments


Popular Paradise Lost tabs & chords
Forever Failure Bass Tabs
Walk Away Bass Tabs
The Last Time Chords
Eternal Tabs
Forever Failure 1 Tabs
Mercy Tabs
Mouth 1 Tabs
One Second Tabs
Pity The Sadness Tabs
The Rise Of Denial Tabs


Song lyrics



↑ Back to top | Tablatures and chords are parodies/interpretations of the original songs. You may use it for private study, scholarship, research or language learning purposes only
© 2014 AZChords.com Contact us | Privacy policy | DMCA | Add/correct tabs | Request tabs | Top 50 tabs