» » »

Paradise Lost, Albino Flogged In Black Tabs (ver.1)

Artists:  A B C D E F G H I J K L M N O P Q R S T U V W X Y Z # 

Albino Flogged In Black Tabs (ver.1)

Paradise Lost Tabs
 Rating:
4/5 (4 votes)
Albino Flogged In Black lessons Tabs too difficult? Try these video lessons and learn fast
                Band: Paradise lost
This is my first attempt of real tabbing so some things may be wrong, This is one great song with
very cool riffs and excellent outro.
Have a lot of fun.

tuning: standard (from low to high): E,A,D,G,B,e
Tabulature explanation: b/ - bend up
			b\ - bend down
			p  - pul of
			h  - hammer on
			/  - slide up the neck
			\  - slide down the neck
			v  - vibrato
			b/^ - keep bending the note
# Intro #
e----------------------------------------|--------------------------------------|
B----------------------------------------|--------------------------------------|
G----------------------------------------|--------------------------------------| repeat X2
D----------------------------------------|--------------------------------------|
A-5-5-5-5-8-8-8-8-10-10-10-10-11-11-10-8-|-5-5-5-5-8-8-8-8-10-10-10-10-8-8-8-10-|
E-3-3-3-3-6-6-6-6--8--8--8--8--9--9--8-6-|-3-3-3-3-6-6-6-6--8--8--8--8-6-6-6--8-|
:
# Verse #
e----------------------------------------|--------------------------------------|
B----------------------------------------|--------------------------------------|
G----------------------------------------|--------------------------------------| repeat X4
D----------------------------------------|--------------------------------------|
A-5-5-5-5-8-8-8-8-10-10-10-10-11-11-10-8-|-5-5-5-5-8-8-8-8-10-10-10-10-8-8-8-10-|
E-3-3-3-3-6-6-6-6--8--8--8--8--9--9--8-6-|-3-3-3-3-6-6-6-6--8--8--8--8-6-6-6--8-|
p.m..............................................................................
:
# Pre-chorus interlude #
e--------------------------|
B--121212121212121212------|
G--121212121212121212p10---|
D-----------------------12-|
A--------------------------|
E--------------------------|
:
# Chorus #
e----------------------------------------|
B----------------------------------------|
G----------------------------------------|  repeat X4
D-555-5--5/88-8--8/1010-10--10/88-8--(5)-| (brackets play only last time)
A-555-5--5/88-8--8/1010-10--10/88-8--(5)-|
E-333-3--3/66-6--6/-8-8--8---8/66-6--(3)-|
:
Then play verseX2, pre-chorus interlude and chorusX4.
:
Then comes the solo. For the solo background play chorusX4 with palm-muting.
:
# Solo #  ! notes marked with * play lot of times (just strum as fast as you can :) !
e--------------------------------------------------------------*---------|
B------11-----------------------------------------------13----1313p11----|
G-7b/----7r-4h5--5b/^p3----------------------------12b/----12--------12v-| let the last note ring and play 
intro
D----------------------5--54---------------------------------------------|
A---------------------------854------------------------------------------|
E------------------------------86-6h8--8b/^63--x/------------------------|
:
Play verseX2, pre-chorus and chorusX4.
:
# Outro#                    repeat X8            repeat X8
e-------------------------|--------------------|----15--13-----------|
B--121212121212121212-----|--------------------|------------15-13----|
G--121212121212121212p10--|----12--10----------|12----------------15-| in the background the other guitar 
chorus
D-----------------------12|-----------12-10----|---------------------|
A-------------------------|10---------------13-|---------------------|
E-------------------------|--------------------|---------------------|
:
# END #
e--------------------------|
B--------------------------|
G---12---or--------or---12-|
D-------------5---------12-|
A-------------5---------10-|
E-------------3------------|
:
Hope you like it.
            
Submit corrections

comments powered by Disqus
↑ Back to top | Paradise Lost Tabs for Albino Flogged In Black. Lyrics for acoustic guitar and electric guitar. Tablatures and chords are parodies/interpretations of the original songs. You may use it for private study, scholarship, research or language learning purposes only