>
 >
She Is Love

She Is Love Guitar Tabs

Parachute Va - She Is Love chords, tabs, tablatures, lyrics

Guitar lessons | Add/correct | Request | Top 50 tabs Artists:  A B C D E F G H I J K L M N O P Q R S T U V W X Y Z 0-9

She Is Love Guitar Tabs – Parachute Va

CD, Sheet music, Poster

Do you like She Is Love? Share with your friends now
ChordsChords v2Chords v3Chords v4TabsTabs v2Ukulele
This is my attempt at a tab for this awesome song. It's actually pretty


Tuning: half step lower
(Eb Ab Db Gb Bb Eb)


------------------x-----------------------------------x------|
---8\--3/--5\3--3-x--3---------3-------8\--3/--5\3--3-x--3---|
---0---0---0----0-x--0---------2p0-----0---0---0----0-x--0---|
------------------x-----------------------------------x------|
-------2---3\2----x------------------------2---3\2----x------|
---0------------3-x--3-------3---------0------------3-x--3---|


I've been beaten down   I've been kicked around    But she takes it all for   me
-----------------------------------------x--3------------------------------x------|
----------------3----------------------3-x--3----------5------------7----3-x--3---|
--------------0----------------------0---x-------------5------------7----0-x--0---|
------------4----------------------------x---------------------------------x------|
----------3----------------------0/2-----x-------------3------------5----2-x--3---|
-----------------------------------------x--0------------------------------x------|


And I lost my faith       In my darkest days     But she makes me want to believe
----------------------------------------x--3------------------------------x------|
---------------3----------------------3-x--3----------5------------7----3-x--3---|
-------------0----------------------0---x-------------5------------7----0-x--0---|
-----------4----------------------------x---------------------------------x------|
---------3----------------------0h2-----x-------------3------------5----2-x--3---|
----------------------------------------x--0------------------------------x------|


They call her love, love, love, love, love
-----------------------------------x-----------------------|
--------------8\----3/-----5\3---3-x--3----------3---3-3---|
--------------0-----0------0-----0-x--0----------2h4-2-0---|
-----------------------------------x-----------------------|
--------------------2------3\2-----x-----------------------|
--------------0------------------3-x--3--------3-----------|


They call her love, love, love, love, love		 She is love   and she is all I need
-----------------------------------x------------------------------------------------|
--------------8\----3/-----5\3---3-x--3---------------------3-----------------------|
--------------0-----0------0-----0-x--0-------------------0-------------------------|
-----------------------------------x--------------------4---------------------------|
--------------------2------3\2-----x------------------3-----------------------------|
--------------0------------------3-x--3---------------------------------------------|


								She's all  I need
------------------x----------------------------------------------x------|
---8\--3/--5\3--3-x--3-------3------------3-------8\--3/--5\3--3-x--3---|
---0---0---0----0-x--0-------2p0----0---0-2p0---0-0---0---0----0-x--0---|
------------------x---------------0---0-------0------------------x------|
-------2---3\2----x-----------------------------------2---3\2----x------|
---0------------3-x--3----------------------------0------------3-x--3---|


  Well I had my ways  They were all in vain         And she waited patiently
-----------------------------------------x--3------------------------------x------|
----------------3----------------------3-x--3----------5------------7----3-x--3---|
--------------0----------------------0---x-------------5------------7----0-x--0---|
------------4----------------------------x---------------------------------x------|
----------3----------------------0h2-----x-------------3------------5----2-x--3---|
-----------------------------------------x--0------------------------------x------|


   It was all the same     All my pride and shame  But she put me on  my    feet
-----------------------------------------x--3----------------------------x------|
----------------3----------------------3-x--3-----------5---------7----3-x--3---|
--------------0----------------------0---x--------------5---------7----0-x--0---|
------------4----------------------------x-------------------------------x------|
----------3----------------------0h2-----x--------------3---------5----2-x--3---|
-----------------------------------------x--0----------------------------x------|


They call her love, love, love, love, love
-----------------------------------x--------------------------------|
--------------8\----3/-----5\3---3-x--3------------3-------3--------|
--------------0-----0------0-----0-x--0-------0--------0-------0----|
-----------------------------------x--------------------------------|
--------------------2------3\2-----x--------------------------------|
--------------0------------------3-x--3----------0---0---0---0------|


They call her love, love, love, love, love
-----------------------------------x-----------------------|
--------------8\----3/-----5\3---3-x--3----------3---3-3---|
--------------0-----0------0-----0-x--0----------2h4-2-0---|
-----------------------------------x-----------------------|
--------------------2------3\2-----x-----------------------|
--------------0------------------3-x--3--------3-----------|


They call her love, love, love, love, love		         She is love   and she is all I need
-----------------------------------x---------3-----------------------------------------------|
--------------8\----3/-----5\3---3-x--3------3-------3---------------3-----------------------|
--------------0-----0------0-----0-x--0----------0-----------------0-------------------------|
-----------------------------------x-----------------------------4---------------------------|
--------------------2------3\2-----x---------------------------3-----------------------------|
--------------0------------------3-x--3--------3---3-----------------------------------------|


Cause when that world       slows       down        dear
--------------------------------------------------------------|
----------------------3-----------3-----------3-----------3---|
--------------------0-----------0-----------0-----------0-----|
------------------4-----------4-----------4-----------4-------|
----------------3-----------5-----------------------2---------|
----------------------------------------0---------------------|


 And when those stars       burn        out         here     Oh, she'll be here, yes 
be here
-----------------------------------------------------------------------------------------|
----------------------3-----------3-----------3-----------3--------3---------------------|
--------------------0-----------0-----------0-----------0----------0---------------------|
------------------4-----------4-----------4-----------4----------------------------------|
----------------3-----------5-----------------------2--------------3---------------------|
----------------------------------------0------------------------------------------------|


They call her love, love, love, love, love
-----------------------------------x-----------------------|
--------------8\----3/-----5\3---3-x--3----------3---3-3---|
--------------0-----0------0-----0-x--0----------2h4-2-0---|
-----------------------------------x-----------------------|
--------------------2------3\2-----x-----------------------|
--------------0------------------3-x--3--------3-----------|


They call her love, love, love, love, love
-----------------------------------x--------------------------------|
--------------8\----3/-----5\3---3-x--3------------3-------3--------|
--------------0-----0------0-----0-x--0-------0--------0-------0----|
-----------------------------------x--------------------------------|
--------------------2------3\2-----x--------------------------------|
--------------0------------------3-x--3----------0---0---0---0------|


They call her love, love, love, love, love		 She is love   and she is all I need
-----------------------------------x-------------------------------------------------|
--------------8\----3/-----5\3---3-x--3------3--------------3------------------3-----|
--------------0-----0------0-----0-x--0------0------------0------------------0-------|
-----------------------------------x--------------------4------------------4---------|
--------------------2------3\2-----x------------------3------------------5-----------|
--------------0------------------3-x--3----------------------------------------------|


She is love      and she is all I need    She is love
-----------------------------------------------------------|
--------------3-------------------3--------------------3---|
------------0-------------------0--------------------0-----|
----------4-------------------4--------------------4-------|
----------------------------2--------------------3---------|
--------0--------------------------------------------------|


And she is all I    need
-------------------------------3---|
-----------------3--------3----3---|
---------------0--------2------0---|
-------------4--------0--------0---|
-----------5-------------------2---|
--------------------2----------3---|





Comments


Popular Parachute Va tabs & chords
All That I Am Chords
All That I Am 1 Chords
Be Here Chords
Kiss Me Slowly Chords
She Is Love Chords
She Is Love 1 Chords
She Is Love 3 Chords
Be Here Ukulele
Kiss Me Slowly Ukulele
She For Liz Ukulele


Song lyrics



↑ Back to top | Tablatures and chords are parodies/interpretations of the original songs. You may use it for private study, scholarship, research or language learning purposes only
© 2014 AZChords.com Contact us | Privacy policy | DMCA | Add/correct tabs | Request tabs | Top 50 tabs