» » »

She For Liz Tabs (ver.1)

Artists:  A B C D E F G H I J K L M N O P Q R S T U V W X Y Z # 

She For Liz Tabs (ver.1)

Parachute Va
Rating:
4/5 (2 votes)

Hard to play? Try these video lessons and learn fast.
                ----------------------------------------------------------------
           "She (For Liz)" - Parachute (VA)
----------------------------------------------------------------


     Someone requested these tabs. They, for sure, are not the
chords that the band actually uses. But, these are the ones that
I used to cover the song, and it worked fine on acoustic. Enjoy!

Tuning: Capo 2 (Standard)


     INTRO/VERSE
e|--2--0------------0--0---|
B|--3--2------------0--2---|
G|--4--2-7-------11-9--2---|
D|--4--2-7--4-5--11-9--2---|
A|--2--0-5--4-5--9--7--0---|
E|----------2-3------------|

     CHORUS
e|----------(2)--3--2--3--(5)---|
B|--3--3--3-(3)--3--3--3--(5)---|
G|--2--2--2-(2)--0--0--0--(0)---|
D|--0--0--0-(0)--2--0--0--(0)---|
A|--2--x--x-(0)--2--x--x--(x)---|
E|-----2--3------0--2--3--(5)---|

     BRIDGE
e|------------------2--2------|
B|--3--3--3--3---3--3--3--3---|
G|--2--2--2--2---2--2--0--2---|
D|--0--0--0--0---0--0--0--0---|
A|--2--x--x--x---2--0--x--x---|
E|-----0--2--3---------2--3---|


If you want to hear it, I played it half step down to match 
my vocal range and decided not to play the bridge.


Thanks iheartemo69 for the correction about the capo tuning.
            
Hard to play? Try these video lessons and learn fast. | Correct




comments powered by Disqus
↑ Back to top | Tablatures and chords are parodies/interpretations of the original songs. You may use it for private study, scholarship, research or language learning purposes only