» » »

Parachute Band, You Remain Tabs (ver.1)

Artists:  A B C D E F G H I J K L M N O P Q R S T U V W X Y Z # 

You Remain Tabs (ver.1)

Parachute Band Tabs
Rating:
0/5 (0 votes)
You Remain lessons Tabs too difficult? Try these video lessons and learn fast
                 Standard Tuning

-Pre-Chorus---

 Strum:

  E  F* E  F*

 -------------|
 -------------|
 -------------|
 -6--8--6--8--|
 -7--9--7--9--|
 -------------|

-Chorus---

  B  F  C* E  B

 -7-----------------------0-----------------------|
 -0-----------------------0-----------------------|
 -9--9-9-9-8-8-8-4-4-4/6--6--9-9-9-8-8-8-4-4-4/6--|
 -9-----------------------7-----------------------|
 -0--7-7-7-6-6-6-2-2-2/4-----7-7-7-6-6-6-2-2-2/4--|
 -------------------------------------------------|

 -0-----------------------0--7--|
 -0-----------------------0--0--|
 -6--9-9-9-8-8-8-4-4-4/6--5--9--|
 -6-----------------------2--9--|
 -4--7-7-7-6-6-6-2-2-2/4--3--0--|
 -------------------------------|

-Bridge---

 (pick each note several times)

 -----------16-18-19--|
 ---------------------|
 -13-15-16------------|
 ---------------------|
 ---------------------|
 ---------------------|
            

comments powered by Disqus
↑ Back to top | Parachute Band Tabs for You Remain. Lyrics for acoustic guitar and electric guitar. Tablatures and chords are parodies/interpretations of the original songs. You may use it for private study, scholarship, research or language learning purposes only