» » »

Promises Tabs (ver.1)

Artists:  A B C D E F G H I J K L M N O P Q R S T U V W X Y Z # 

Promises Tabs (ver.1)

Parachute Band
Rating:
0/5 (0 votes)

Hard to play? Try these video lessons and learn fast.
                -------------------------------------------------------------------------------
-------------------------------------------------------------------------------



Intro and Verse 1:
 
e|---------------------------------------------------------------------------|
B|---------------------------------------------------------------------------|
G|--7-6----------------7-6---------------------------------------------------|
D|------7----4-7-----------7-----4-7-----------------------------------------|
A|---------5-----4--5---------5-------5--------------------------------------|
E|---------------------------------------------------------------------------|



Chorus:

e|---------------------------------------------------------------------------|
B|---------------------------------------------------------------------------|
G|------4---------4---------4----------4-------------------------------------|
D|----4---5-----4---5-----4---5-----7----5-----------------------------------|
A|--5---------5---------5----------------------------------------------------|
E|---------------------------------------------------------------------------|



Verse 2:

e|-------------------------|
B|-------------------------|
G|--4---7---11---9---7-6---|
D|-------------------------|
A|-------------------------|
E|-------------------------|



Chorus



Interlude:

e|---------------------------------------------------------------------------|
B|---------------------------------------------------------------------------|
G|--7-6----------------7-6---------------------------------------------------|
D|------7----4-7-----------7-----4-7-----------------------------------------|
A|---------5-----4--5---------5-------5--------------------------------------|
E|---------------------------------------------------------------------------|



Bridge:

e|---------------|
B|---------------|
G|---------------|
D|--7--10--5-----|
A|---------------|
E|---------------|


Chorus
            
Hard to play? Try these video lessons and learn fast. | Correct




comments powered by Disqus
↑ Back to top | Tablatures and chords are parodies/interpretations of the original songs. You may use it for private study, scholarship, research or language learning purposes only