» » »

Peace On Earth Tabs (ver.1)

Artists:  A B C D E F G H I J K L M N O P Q R S T U V W X Y Z # 

Peace On Earth Tabs (ver.1)

Parachute Band
Rating:
5/5 (1 vote)

Hard to play? Try these video lessons and learn fast.
                 Standard Tuning

-Verse---

 (warm overdrive with delay)

 Strum:

   G*  E  B
 -----------|
 -----------|
 -----------|
 - 9--6--1--|
 -11--7--2--|
 -----------|

-Pre-Chorus---

 (warm overdrive with delay)

 Strum:

 -------|
 -------|
 -------|
 ----6--|
 -4--7--|
 -5-----|

-Chorus---

 (warm overdrive with delay)

 Strum (down 8th notes)

  B  C* G*m  E  F*

 -7--7--7----7--4--|
 -4--5--4----5--7--|
 -4--6--4----4--6--|
 -4--4--6----6--4--|
 ------------------|
 ------------------|

-Chorus (last)---

 (warm overdrive with delay)

 (last chord on strum)

 -7--7--7--7--7--4--7--|
 -4--5--4--5--4--7--4--|
 -4--6--4--4--4--6--4--|
 -4--4--6--6--6--4--4--|
 ----------------------|
 ----------------------|

-Bridge---

 (warm overdrive with delay)

  G*  B  E  F* G* F*/A*  B

 ---------------------------|
 ---------------------------|
 --------1--3--4--6------8--|
 - 9--1--2--4--6--8------9--|
 -11--2---------------------|
 ---------------------------|

 (lot of delay with wah)

 Picking:

  B      F*/A*  G*m

 -7--9------0--|
 -0--7------0--|
 -9--6------4--|
 -9--8------6--|
 --------------|
 --------------|


-Chorus (last)---

 (warm overdrive with delay)

 (last chord on strum)

 -7--7--7--7--7--4--7--|
 -4--5--4--5--4--7--4--|
 -4--6--4--4--4--6--4--|
 -4--4--6--6--6--4--4--|
 ----------------------|
 ----------------------|
            
Hard to play? Try these video lessons and learn fast. | Correct




comments powered by Disqus
↑ Back to top | Tablatures and chords are parodies/interpretations of the original songs. You may use it for private study, scholarship, research or language learning purposes only