» » »

Parachute Band, Alive Within Chords (ver.1)

Artists:  A B C D E F G H I J K L M N O P Q R S T U V W X Y Z # 

Alive Within Chords (ver.1)

Parachute Band Tabs
Rating:
0/5 (0 votes)
Alive Within lessons Tabs too difficult? Try these video lessons and learn fast
                ALIVE WITHIN
(Parachute Band)

Intro:
Am - F - G

Am     F  G   Am        F      G
God of mercy, show your mighty hand
Am     F  G    Am       F     G
God of wonder, breathe on us again

F                Am            G
Your my king and all consuming fire
F                Am                 G
Heaven state your might deserve the sky

Chorus:

C         G              Am
Surrender all, surrender all
Am              F 
I'm dead to sin, alive within
C         G               Am F
Surrender all, surrender all


Am    F  G    Am        F       G
God almighty, change my dark to light
Am     F  G     Am        F       G
God of passion, gave your word as life

F                Am            G
Your my king and all consuming fire
F                    Am          G
Strip away the flesh and take me higher

Chorus:

C         G             Am
Surrender all, surrender all
Am               F 
I'm dead to sin, alive within
C         G              Am
Surrender all, surrender all
F
Yeah...

Adlib

e|------------------------------------------------------------------------| 
B|------------------------------------------------------------------------|
G|--7~9-9-9---------7~9-9-9-----------------------------------------------|
D|----------7-7-10----------7-7-10-10-9-9-9-9-7--7-9/10-9-7-9-------------| 
A|------------------------------------------------------------------------|
E|------------------------------------------------------------------------|

e|------------------------------------------------------------------------| 
B|------------------------------------------------------------------------|
G|--7~9-9-9-9/12-9--9-9-12-14-14-14~17-14--14-14~17-14-12-12-12~14-12-----|
D|------------------------------------------------------------------------| 
A|------------------------------------------------------------------------|
E|------------------------------------------------------------------------|

e|-------------------------------------------------------------------| 
B|-------------------------------------------------------------------|
G|--14-14-14-12-12-12-10-10-10--10-9---------------------------------|
D|-----------------------------------10------------------------------| 
A|-------------------------------------------------------------------|
E|-------------------------------------------------------------------|

Chorus:

C         G             Am
Surrender all, surrender all
Am               F 
I'm dead to sin, alive within
C         G              Am
Surrender all, surrender all
F
Yeah...


C         G              Am
Surrender all, surrender all
Am               F 
I'm dead to sin, alive within
C         G              Am
Surrender all, surrender all
Am               F 
I'm dead to sin, alive within...



To all guyz there, if you have suggestions feel free to send e-mail to me...

Let's Praise Jesus!
            

comments powered by Disqus
↑ Back to top | Parachute Band Chords for Alive Within. Lyrics for acoustic guitar and electric guitar. Tablatures and chords are parodies/interpretations of the original songs. You may use it for private study, scholarship, research or language learning purposes only