» » »

Back Again Tabs (ver.1)

Artists:  A B C D E F G H I J K L M N O P Q R S T U V W X Y Z # 

Back Again Tabs (ver.1)

Parachute
Rating:
4/5 (1 vote)

Hard to play? Try these video lessons and learn fast.
                (Intro)
a)
  e---------x-x-x-x-x-x-x-x-x-x-x-x----|
  h---------x-x-x-x-x-x-x-x-x-x-x-x----|
  g---------x-x-x-x-x-x-x-x-x-x-x-x----|
  d-7-7-7-7-x-x-x-x-x-x-x-x-x-x-x-x----|   3x
  a-7-7-7-7-x-x-x-x-x-x-x-x-x-x-x-x----|
  D-7-7-7-7-x-x-x-x-x-x-x-x-x-x-x-x----|

b)
  e---------x-x-x-x-----------------|
  h---------x-x-x-x-----------------|
  g---------x-x-x-x-----------------|
  d-7-7-7-7-x-x-x-x-3-3-3-3-5-5-5-5-|
  a-7-7-7-7-x-x-x-x-3-3-3-3-5-5-5-5-|
  D-7-7-7-7-x-x-x-x-3-3-3-3-5-5-5-5-|

a) 3x

c)
  e----------------------------|
  h----------------------------|
  g----------------------------|
  d-12----12----12--12--12--12-|
  a-12----12----12--12--12--12-|
  D-12----12----12--12--12--12-|
            
Hard to play? Try these video lessons and learn fast. | Correct




comments powered by Disqus
↑ Back to top | Tablatures and chords are parodies/interpretations of the original songs. You may use it for private study, scholarship, research or language learning purposes only