» » »

Parabelle, The Conversation Ends Tabs (ver.1)

Artists:  A B C D E F G H I J K L M N O P Q R S T U V W X Y Z # 

The Conversation Ends Tabs (ver.1)

Parabelle Tabs
 Rating:
4.3/5 (6 votes)
The Conversation Ends lessons Tabs too difficult? Try these video lessons and learn fast
                ----------------------------------------------------------------------------
----------------------------------------------------------------------------

Tuning: Drop C

Verse 1:
                                                     play on last one
D|---------------------------------------------|----12---------------------|
A|--------------------------------10----13-----|-------13--------10--------|
F|--------10---9---------------10----10--------|-----------10-12----10-----|
C|------8----8---------------0-----------------|---------------------------|
G|---------------------------------------------|---------------------------|
C|----8----------------------------------------|---------------------------|

Pre-Chorus: Rhythm Guitar

D|-------------------------------------------------------------------------|
A|-------------------------------------------------------------------------|
F|-------------------------------------------------------------------------|
C|-8-8-8-8-8-8-8-8-8-8-8-8-8-8-8-8-0-0---0-0---0-0---0h33-3-3--------------|
G|-8-8-8-8-8-8-8-8-8-8-8-8-8-8-8-8-0-0---0-0---0-0---0h33-3-3--------------|
C|-8-8-8-8-8-8-8-8-8-8-8-8-8-8-8-8-0-0---0-0---0-0---0h33-3-3--------------|

D|-------------------------------------------------------------------------|
A|-------------------------------------------------------------------------|
F|-------------------------------------------------------------------------|
C|-8-8-8-8-8-8-8-8-8-8-8-8-8-7-7-7-10-10-10-10-10-10-10-10-10/8-8-8-8/5-5-5|
G|-8-8-8-8-8-8-8-8-8-8-8-8-8-7-7-7-10-10-10-10-10-10-10-10-10/8-8-8-8/5-5-5|
C|-8-8-8-8-8-8-8-8-8-8-8-8-8-7-7-7-10-10-10-10-10-10-10-10-10/8-8-8-8/5-5-5|

Lead Guitar 

D|-------------------------------------------------------------------------|
A|-------------------------------------------------------------------------|
F|-----10------10------10------9------10------5------10-10-9h10p9----------|
C|-8-8-----8-8-----8-8-----8-8----0-0-----0-0----0-0-------------10-10-----|
G|-------------------------------------------------------------------------|
C|-------------------------------------------------------------------------|

D|-------------------------------------------------------------------------|
A|-------------------------------------------------------------------------|
F|-----10------10------10------9--------12--------12--------14-12-14-10-9-10
C|-8-8-----8-8-----8-8-----8-8----10-10-----10-10-----10-10----------------|
G|-------------------------------------------------------------------------|
C|-------------------------------------------------------------------------|

Chorus: Rhythm Guitar

D|-------------------------------------------------------------------------|
A|-------------------------------------------------------------------------|
F|-------------------------------------------------------------------------|
C|-0-0-0-0-0-0-0-0-0-0-0-0-0-0-0-0-8-8-8-8-8-8-8-8-8-8-8-8-55-5/8----------|
G|-0-0-0-0-0-0-0-0-0-0-0-0-0-0-0-0-8-8-8-8-8-8-8-8-8-8-8-8-55-5/8----------|
C|-0-0-0-0-0-0-0-0-0-0-0-0-0-0-0-0-8-8-8-8-8-8-8-8-8-8-8-8-55-5/8----------|

D|-------------------------------------------------------------------------|
A|-------------------------------------------------------------------------|
F|-------------------------------------------------------------------------|
C|-0-0-0-0-0-0-0-0-0-0-0-0-0-0-0-0-8-8-8-8-8-8-8-8-8-8-8-8-555-5/10-10-----|
G|-0-0-0-0-0-0-0-0-0-0-0-0-0-0-0-0-8-8-8-8-8-8-8-8-8-8-8-8-555-5/10-10-----|
C|-0-0-0-0-0-0-0-0-0-0-0-0-0-0-0-0-8-8-8-8-8-8-8-8-8-8-8-8-555-5/10-10-----|

Lead Guitar

D|-------------------------------------------------------------------------|
A|-------------------------------------------------------------------------|
F|-------------------------------------------------------------------------|
C|--12~~~~~~~~12/14-14/15-15~~~17~~~19~~~----------------------------------|
G|-------------------------------------------------------------------------|
C|-------------------------------------------------------------------------|

Verse 2:

D|-------------------------------------------------------------------------|
A|-------------------------------------------------------------------------|
F|-------------------------------------------------------------------------|
C|---------------8h7-1p0---------------8h7-1p0---------------8h7-1p0-------|
G|-0-0--0--0-0-0---------0-0--0--0-0-0---------8-8--8--8-8-8---------------|
C|-0-0--0--0-0-0---------0-0--0--0-0-0---------8-8--8--8-8-8---------------|
   x x  x  x x x         x x  x  x x x         x x  x  x x x

D|-------------------------------------------------------------------------|
A|-------------------------------------------------------------------------|
F|-------------------------------------------------------------------------|
C|-----------8h7-1p0-1p0-1p0-----------------------------------------------|
G|-8-8--8--8---------------------------------------------------------------|
C|-8-8--8--8---------------------------------------------------------------|
   x x  x  x          

D|-------------------------------------------------------------------------|
A|-------------------------------------------------------------------------|
F|-------------------------------------------------------------------------|
C|---------------8h7-1p0---------------8h7-1p0---------------8h7-1p0-------|
G|-0-0--0--0-0-0---------0-0--0--0-0-0---------8-8--8--8-8-8---------------|
C|-0-0--0--0-0-0---------0-0--0--0-0-0---------8-8--8--8-8-8---------------|
   x x  x  x x x         x x  x  x x x         x x  x  x x x

D|-------------------------------------------------------------------------|
A|-------------------------------------------------------------------------|
F|-------------------------------------------------------------------------|
C|-10-10-10-10-10-5-5-5----------------------------------------------------|
G|-10-10-10-10-10-5-5-5----------------------------------------------------|
C|-10-10-10-10-10-5-5-5----------------------------------------------------|
   
Pre-Chorus

Chorus

Bridge 1: Rhythm Guitar

D|-------------------------------------------------------------------------|
A|-------------------------------------------------------------------------|
F|-------------------------------------------------------------------------|
C|--0--------------------------8-------------------------------------------|
G|--0--------------------------8-------------(repeat)----------------------|
C|--0--------------------------8-------------------------------------------|

Lead Guitar

D|--12-------------------12------------------------------------------------|
A|--------10-------10-----------10-----------------------------------------|
F|-----12----10-12----10-----12----10-12-10-9-10---------------------------|
C|-------------------------------------------------------------------------|
G|-------------------------------------------------------------------------|
C|-------------------------------------------------------------------------|

 When the conversation ends........

D|-------------------------------------------------------------------------|
A|-------------------------------------------------------------------------|
F|----------------------------------12-10-9-10-----------------------------|
C|--------12~~~~~~~~~~~~~~~~~~~~~~~~-----------12~~~~~~~~~~~~~~~~~~~~~-----|
G|-------------------------------------------------------------------------|
C|-------------------------------------------------------------------------|

Bridge 2: Both guitars

D|-------------------------------------------------------------------------|
A|-------------------------------------------------------------------------|
F|-------------------------------------------------------------------------|
C|-------------------------------------------------------------------------|
G|-------------------------------------------------------------------------|
C|--5h3p0-3--0-5h3p0-3--0-5h3p0---5h3p0-3--0-5h3p0-3p0-0-------------------|

D|-------------------------------------------------------------------------|
A|-------------------------------------------------------------------------|
F|-------------------------------------------------------------------------|
C|-------------------------------------------------------------------------|
G|-------------------------------------------------------------------------|
C|--5h3p0-3--0-5h3p0-3--0-5h3p0---5h3p0-3--0-5h3p0-3p0-0-------------------|
 
Pre-Chorus 2:

D|-------------------------------------------------------------------------|
A|-------------------------------------------------------------------------|
F|-------------------------------------------------------------------------|
C|-8-----------------------------------------------------------------------|
G|-8-----------------------------------------------------------------------|
C|-8-----------------------------------------------------------------------|


Chorus X2

END


************************************

| /   slide up
| \   slide down
| h   hammer-on
| p   pull-off
| ~   vibrato
| +   harmonic
| x   Mute note
| b   Bend
| pb  Pre-bend
| br  Bend release
| pbr Pre-bend release
| brb Bend release bend

************************************
            
Submit corrections

comments powered by Disqus
↑ Back to top | Parabelle Tabs for The Conversation Ends. Lyrics for acoustic guitar and electric guitar. Tablatures and chords are parodies/interpretations of the original songs. You may use it for private study, scholarship, research or language learning purposes only