» » »

Parabelle, Stay Close Tabs (ver.1)

Artists:  A B C D E F G H I J K L M N O P Q R S T U V W X Y Z # 

Stay Close Tabs (ver.1)

Parabelle Tabs
 Rating:
4/5 (4 votes)
Stay Close lessons Tabs too difficult? Try these video lessons and learn fast
                ----------------------------------------------------------------
----------------------------------------------------------------
Tuning: Drop C for both guitars

I love the lead guitar for this song, its really pretty.
Any corrections feel free to send them in and ill update
the tab immediately, also, feel free to rate and comment.
Im only doing the lead for now, till i tab out all the
rhythm then ill update it with that, so keep checking.
This is my second song ive ever tabbed so please dont be
too mean about it (: enjoy!

=-=-=-=-=-=-=-=-=-=-=-=-=-=-
Guitar 1 - Lead
=-=-=-=-=-=-=-=-=-=-=-=-=-=-

Intro
|-----------------17--17-17-17-17-17-17-17-----------------/19-17-15-14-|
|--14h15-15-15-15---------------------------14h15-15-15-15--------------|
|-----------------------------------------------------------------------|
|-----------------------------------------------------------------------|
|-----------------------------------------------------------------------|
|-----------------------------------------------------------------------|

|-----------------17--17-17-17-17-17-17-17--22-22-22-21-21-21-21--21-21-21-17-17-17-17-|
|--14h15-15-15-15----------------------------------------------------------------------|
|--------------------------------------------------------------------------------------|
|--------------------------------------------------------------------------------------|
|--------------------------------------------------------------------------------------|
|--------------------------------------------------------------------------------------|

|-----------------17--17-17-17-17-17-17-17-----------------/19-17-15-14-|
|--14h15-15-15-15---------------------------14h15-15-15-15--------------|
|-----------------------------------------------------------------------|
|-----------------------------------------------------------------------|
|-----------------------------------------------------------------------|
|-----------------------------------------------------------------------|

|-----------------17--17-17-17-17-17-17-17--22-22-22-21-21-21-21--21-21-21-17-17-17-17-|
|--14h15-15-15-15----------------------------------------------------------------------|
|--------------------------------------------------------------------------------------|
|--------------------------------------------------------------------------------------|
|--------------------------------------------------------------------------------------|
|--------------------------------------------------------------------------------------|

Verse 1
doesnt play during the verses

Chorus 1
|-----------------17--17-17-17-17-17-17-17-----------------/19-17-15-14-|
|--14h15-15-15-15---------------------------14h15-15-15-15--------------|
|-----------------------------------------------------------------------|
|-----------------------------------------------------------------------|
|-----------------------------------------------------------------------|
|-----------------------------------------------------------------------|

|-----------------17--17-17-17-17-17-17-17--22-22-22-21-21-21-21--21-21-21-17-17-17-17-|
|--14h15-15-15-15----------------------------------------------------------------------|
|--------------------------------------------------------------------------------------|
|--------------------------------------------------------------------------------------|
|--------------------------------------------------------------------------------------|
|--------------------------------------------------------------------------------------|

|-----------------17--17-17-17-17-17-17-17-----------------/19-17-15-14-|
|--14h15-15-15-15---------------------------14h15-15-15-15--------------|
|-----------------------------------------------------------------------|
|-----------------------------------------------------------------------|
|-----------------------------------------------------------------------|
|-----------------------------------------------------------------------|

|-----------------17--17-17-17-17-17-17-17--22-22-22-21-21-21-21--21-21-21-17-17-17-17-|
|--14h15-15-15-15----------------------------------------------------------------------|
|--------------------------------------------------------------------------------------|
|--------------------------------------------------------------------------------------|
|--------------------------------------------------------------------------------------|
|--------------------------------------------------------------------------------------|

Verse 2
doesnt play during the verses


Chorus 2
|-----------------17--17-17-17-17-17-17-17-----------------/19-17-15-14-|
|--14h15-15-15-15---------------------------14h15-15-15-15--------------|
|-----------------------------------------------------------------------|
|-----------------------------------------------------------------------|
|-----------------------------------------------------------------------|
|-----------------------------------------------------------------------|

|-----------------17--17-17-17-17-17-17-17--22-22-22-21-21-21-21--21-21-21-17-17-17-17-|
|--14h15-15-15-15----------------------------------------------------------------------|
|--------------------------------------------------------------------------------------|
|--------------------------------------------------------------------------------------|
|--------------------------------------------------------------------------------------|
|--------------------------------------------------------------------------------------|

|-----------------17--17-17-17-17-17-17-17-----------------/19-17-15-14-|
|--14h15-15-15-15---------------------------14h15-15-15-15--------------|
|-----------------------------------------------------------------------|
|-----------------------------------------------------------------------|
|-----------------------------------------------------------------------|
|-----------------------------------------------------------------------|

|-----------------17--17-17-17-17-17-17-17--22-22-22-21-21-21-21--21-21-21-17-17-17-17-|
|--14h15-15-15-15----------------------------------------------------------------------|
|--------------------------------------------------------------------------------------|
|--------------------------------------------------------------------------------------|
|--------------------------------------------------------------------------------------|
|--------------------------------------------------------------------------------------|

Bridge
havent figured this out yet, ill update the tab with it as soon
as i figure it out (:


Solo
|-----------------17--17-17-17-17-17-17-17-----------------19----17----15-14----|
|--14h15-15-15-15---------------------------14h15-15-15-15----14----14-------15-|
|-------------------------------------------------------------------------------|
|-------------------------------------------------------------------------------|
|-------------------------------------------------------------------------------|
|-------------------------------------------------------------------------------|

|--19----17------------19----17-----------19-17-15-14----22-21-19-17-15-15/14------|
|-----15----14-14/12~-----15---14-14\15~--------------15----------------------15~--|
|----------------------------------------------------------------------------------|
|----------------------------------------------------------------------------------|
|----------------------------------------------------------------------------------|
|----------------------------------------------------------------------------------|

Chorus 3
|-----------------17--17-17-17-17-17-17-17-----------------/19-17-15-14-|
|--14h15-15-15-15---------------------------14h15-15-15-15--------------|
|-----------------------------------------------------------------------|
|-----------------------------------------------------------------------|
|-----------------------------------------------------------------------|
|-----------------------------------------------------------------------|

|-----------------17--17-17-17-17-17-17-17--22-22-22-21-21-21-21--21-21-21-17-17-17-17-|
|--14h15-15-15-15----------------------------------------------------------------------|
|--------------------------------------------------------------------------------------|
|--------------------------------------------------------------------------------------|
|--------------------------------------------------------------------------------------|
|--------------------------------------------------------------------------------------|

|-----------------17--17-17-17-17-17-17-17-----------------/19-17-15-14-|
|--14h15-15-15-15---------------------------14h15-15-15-15--------------|
|-----------------------------------------------------------------------|
|-----------------------------------------------------------------------|
|-----------------------------------------------------------------------|
|-----------------------------------------------------------------------|

|-----------------17--17-17-17-17-17-17-17--22-22-22-21-21-21-21--21-21-21-17-17-17-17-|
|--14h15-15-15-15----------------------------------------------------------------------|
|--------------------------------------------------------------------------------------|
|--------------------------------------------------------------------------------------|
|--------------------------------------------------------------------------------------|
|--------------------------------------------------------------------------------------|

|----------|
|-14h15~~--|
|----------|
|----------| let it fade out with slight feedback
|----------|
|----------|
            
Submit corrections

comments powered by Disqus
↑ Back to top | Parabelle Tabs for Stay Close. Lyrics for acoustic guitar and electric guitar. Tablatures and chords are parodies/interpretations of the original songs. You may use it for private study, scholarship, research or language learning purposes only