» » »

Pray Tabs (ver.1)

Artists:  A B C D E F G H I J K L M N O P Q R S T U V W X Y Z # 

Pray Tabs (ver.1)

Parabelle
Rating:
0/5 (0 votes)

Tabs too difficult? Try these video lessons and learn fast.
                -----------------------------------------------------------------------------
-----------------------------------------------------------------------------

Tuning: Drop C (Detuned + one whole step down)

VERSE

     Am                         F
d|-------------------------------------------------------------------------|
A|------------0h1------1----------------3--------3-------------------------|
F|-------2--------2---------------5---------5---------5--------------------|
C|-----2---2---------2----------3----3----3----3----3----------------------|
G|--0----------------------------------------------------------------------|
C|---------------------------3---------------------------------------------|

     D                          Am
d|-------------------------------------------------0-----------------------|
A|--------------------------------------0h1--------1-----------------------|
F|--------------------------------2----------2-----------------------------|
C|------0----2br-2----0--------2---2----------2----------------------------|
G|----0---0----------0-------0---------------------------------------------|
C|--0----------------------------------------------------------------------|

CHORUS (just play these chords)

    Am    F     C      D
d|--0-----------0------0---------------------------------------------------|
A|--1-----6-----1------3---------------------------------------------------|
F|--2-----5-----0------2---------------------------------------------------|
C|--2-----3-----2------0---------------------------------------------------|
G|--0-----3-----3----------------------------------------------------------|
C|--------3----------------------------------------------------------------|



************************************

| /   slide up
| \   slide down
| h   hammer-on
| p   pull-off
| ~   vibrato
| +   harmonic
| x   Mute note
| b   Bend
| pb  Pre-bend
| br  Bend release
| pbr Pre-bend release
| brb Bend release bend

************************************
            
Tabs too difficult? Try these video lessons and learn fast.


comments powered by Disqus
↑ Back to top | Tablatures and chords are parodies/interpretations of the original songs. You may use it for private study, scholarship, research or language learning purposes only