>
 >
Made Of

Made Of Guitar Tabs

Parabelle - Made Of chords, tabs, tablatures, lyrics

Guitar lessons | Add/correct | Request | Top 50 tabs Artists:  A B C D E F G H I J K L M N O P Q R S T U V W X Y Z 0-9

Made Of Guitar Tabs – Parabelle

CD, Sheet music, Poster

Do you like Made Of? Share with your friends now
Tabs
Capo 5th
Notes relative to capo

h - hammer on
p - pull-off
/ - slide up
\ - slide down
 
**ILL FINISH TAB ANOTHER DAY..This will give you main parts.

Intro/Verse
e|--------------------------------|
B|-----5---5----------------------|
G|-------6---6-------4---4-6------|
D|---7-------------7---7----------|
A|--------------------------------|
D|-4-------------4----------------|

e|--------------------------------|
B|-----5---5----------------------|
G|-------6---6-------4---4-6------|
D|---7-------------7---7----------|
A|--------------------------------|
D|-4-------------4----------------|

e|--------------------------------|
B|-----5---5----------------------|
G|-------6---6-------4---4-6------|
D|---7-------------7---7----------|
A|--------------------------------|
D|-0-------------0----------------|

e|--------------------4h5---------|
B|-----5---5-------------5--------|
G|-------6---6-------------6-4----|
D|---7-------------7------------7-|
A|--------------------------------|
D|-0-------------0----------------|

********Chorus
Rhythm - measures 1 & 2
e|------------------------------|
B|-----5------------------------|
G|-----6------------------------|
D|-----4------------------------|
A|-----4------------------------|
D|-----4------------------------| Listen for stum pattern
"stay strong..."                

Lead 
e|--4h5p4-----------------------|
B|-------5----------------------|
G|---------6--------------------|
D|------------------------------| 1/2 measure
A|------------------------------|
D|------------------------------|

e|--4h5p4-----------------------|
B|-------5----------------------|
G|---------6h7--6-4-------------| 1/2 measure
D|------------------------------|
A|------------------------------|
D|------------------------------| 

e|--4h5p4-----------------------|
B|-------5----------------------|
G|---------6--------------------| 1/2 measure 
D|------------------------------|
A|------------------------------|
D|------------------------------|

e|--4h5p4-----------------------|
B|-------5----------------------|
G|---------6\4--4\2-------------|
D|------------------------------| 1/2 measure 
A|------------------------------|
D|------------------------------| 

Rhythm - measures 3 & 4
e|------------------------------|
B|-----5------------------------|
G|-----6------------------------|
D|-----0------------------------|
A|-----0------------------------|
D|-----0------------------------|

Lead 
e|--4h5p4-----------------------|
B|-------5----------------------|
G|---------6--------------------|
D|------------------------------| 1/2 measure
A|------------------------------|
D|------------------------------|

e|--4h5p4-----------------------|
B|-------5----------------------|
G|---------6h7--6-4-------------| 1/2 measure
D|------------------------------|
A|------------------------------|
D|------------------------------| 

e|--4h5p4-----------------------|
B|-------5----------------------|
G|---------6--------------------| 1/2 measure 
D|------------------------------|
A|------------------------------|
D|------------------------------|

e|--4h5p4-----------------------|
B|-------5----------------------|
G|---------6\4--4\2-------------|
D|------------------------------| 1/2 measure  
A|------------------------------|
D|------------------------------|

Rhythm - measures 5 & 6
e|------------------------------|
B|-----5------------------------|
G|-----6------------------------|
D|-----4------------------------|
A|-----4------------------------|
D|-----4------------------------|

Lead plays same melody as above but an octave lower
e|------------------------------|
B|------------------------------|
G|------------------------------|
D|--6h7p6-----------------------| 1/2 measure
A|-------7-4--------------------|
D|------------------------------|

e|------------------------------|
B|------------------------------|
G|------------------------------|  1/2 measure
D|--6h7p6-----------------------|
A|-------7-4h5--4\2-------------|
D|------------------------------|

e|------------------------------|
B|------------------------------|
G|------------------------------|  1/2 measure
D|--6h7p6-----------------------|
A|-------7-4--------------------|
D|------------------------------|

e|------------------------------|
B|------------------------------|
G|------------------------------|  1/2 measure
D|--6h7p6-----------------------|
A|-------7-4\2--2p0-------------|
D|------------------------------|

Rhythm - measures 7 & 8
e|------------------------------|
B|-----5------------------------|
G|-----6------------------------|
D|-----0------------------------|
A|-----0------------------------|
D|-----0------------------------|

Lead
e|------------------------------|
B|------------------------------|
G|------------------------------|  1/2 measure
D|--6h7p6-----------------------|
A|-------7-4--------------------|
D|------------------------------|

e|------------------------------|
B|------------------------------|
G|------------------------------|
D|--6h7p6-----------------------|  1/2 measure
A|-------7-4h5--4\2-------------|
D|------------------------------|

e|------------------------------|
B|------------------------------|
G|------------------------------|
D|--6h7p6-----------------------|  1/2 measure
A|-------7-4--------------------|
D|------------------------------|

e|------------------------------|
B|------------------------------|
G|------------------------------|
D|--6h7p6-----------------------|  1/2 measure
A|-------7-4\2--2p0-------------|
D|------------------------------|

Repeat Intro/Verse
Repeat Chorus

Bridge****
Rhythm
e|------------------------------|
B|------------------------------|
G|------------------------------|
D|-----2------------------------|
A|-----2------------------------|
D|-----2------------------------|

Lead
e|-----------------------------|
B|-----------------------------|
G|-----------------------------|
D|-----------------------------|
A|-----------------------------|
D|-----------------------------|

Rhythm
e|------------------------------|
B|------------------------------|
G|------------------------------|
D|-----4------------------------|
A|-----4------------------------|
D|-----4------------------------|

Rhythm
e|------------------------------|
B|------------------------------|
G|------------------------------|
D|-----7------------------------|
A|-----7------------------------|
D|-----7------------------------|

Rhythm
e|------------------------------|
B|------------------------------|
G|------------------------------|
D|-----0------------------------|
A|-----0------------------------|
D|-----0------------------------|





Comments


Popular Parabelle tabs & chords
A Drop In The Ocean Tabs
Kiss The Flag The Widow Tabs
Pray Tabs
Stay Close Tabs
The Conversation Ends Tabs
Us Tabs


Song lyrics



↑ Back to top | Tablatures and chords are parodies/interpretations of the original songs. You may use it for private study, scholarship, research or language learning purposes only
© 2014 AZChords.com Contact us | Privacy policy | DMCA | Add/correct tabs | Request tabs | Top 50 tabs