» » »

Kiss The Flag The Widow Tabs (ver.1)

Artists:  A B C D E F G H I J K L M N O P Q R S T U V W X Y Z # 

Kiss The Flag The Widow Tabs (ver.1)

Parabelle
Rating:
3/5 (2 votes)

Hard to play? Try these video lessons and learn fast.
                -------------------------------------------------
Kiss the Flag: The Widow - Parabelle
-------------------------------------------------
Tuning: Drop C (CGCFAD)

ear, so if there are any mistakes, dont get too
upset lol anyways, here it is. any corrections you
can send me id greatly appreciate it, and ill 
update the tab immediately after i receive them.
I only tabbed the rhythm for right now, the lead
guitar is coming soon (: enjoy

Fades in playing the intro..

Intro
|-------------------------------------------------|
|-------------------------------------------------|
|-------------------------------------------------|
|-------------------------------------------------|
|-------------------------------------------------|
|--0-0-10-8-7-0--0-10-8-7-0--0-10-8-7-0--0-10-8-7-|

|------------------------------------------------------------------------------------------|
|------------------------------------------------------------------------------------------|
|------------------------------------------------------------------------------------------|
|--8--8-8-8-8-8-8-8-8-8-8-8-8-8-8-8-8--10--10-10-10-10-10-10-10-10-10-10-10-10-10-10-10-10-|
|--8--8-8-8-8-8-8-8-8-8-8-8-8-8-8-8-8--10--10-10-10-10-10-10-10-10-10-10-10-10-10-10-10-10-|
|--8--8-8-8-8-8-8-8-8-8-8-8-8-8-8-8-8--10--10-10-10-10-10-10-10-10-10-10-10-10-10-10-10-10-|

|-------------------------------------------------|
|-------------------------------------------------|
|-------------------------------------------------|
|-------------------------------------------------|
|-------------------------------------------------|
|--0-0-10-8-7-0--0-10-8-7-0--0-10-8-7-0--0-10-8-7-|

|------------------------------------------------------------------------------------------|
|------------------------------------------------------------------------------------------|
|------------------------------------------------------------------------------------------|
|--8--8-8-8-8-8-8-8-8-8-8-8-8-8-8-8-8--10--10-10-10-10-10-10-10-10-10-10-10-10-10-10-10-10-|
|--8--8-8-8-8-8-8-8-8-8-8-8-8-8-8-8-8--10--10-10-10-10-10-10-10-10-10-10-10-10-10-10-10-10-|
|--8--8-8-8-8-8-8-8-8-8-8-8-8-8-8-8-8--10--10-10-10-10-10-10-10-10-10-10-10-10-10-10-10-10-|


Verse 1
|---------------------------------------------------------------|
|---------------------------------------------------------------|
|---------------------------------------------------------------|
|--8~~------------0~~------------8~~--------------0~~-----------|
|--8~~------------0~~------------8~~--------------0~~-----------|
|--8~~------------0~~------------8~~--------------0~~-----------|

|---------------------------------------------------------------|
|---------------------------------------------------------------|
|---------------------------------------------------------------|
|--8--8-8-8-8-8-8-8-8-8-8-8-8-8----0--0-0-0-0-0-0-0-0-0-0-0-0-0-|
|--8--8-8-8-8-8-8-8-8-8-8-8-8-8----0--0-0-0-0-0-0-0-0-0-0-0-0-0-|
|--8--8-8-8-8-8-8-8-8-8-8-8-8-8----0--0-0-0-0-0-0-0-0-0-0-0-0-0-|
      . .   . . .   . . .   . .       . .   . . .   . . .   . . 

|---------------------------------------------------------------|
|---------------------------------------------------------------|
|---------------------------------------------------------------|
|--8--8-8-8-8-8-8-8-8-8-8-8-8-8----0--0-0-0-0-0-0-0-0-0-0-0-0-0-|
|--8--8-8-8-8-8-8-8-8-8-8-8-8-8----0--0-0-0-0-0-0-0-0-0-0-0-0-0-|
|--8--8-8-8-8-8-8-8-8-8-8-8-8-8----0--0-0-0-0-0-0-0-0-0-0-0-0-0-|
      . .   . . .   . . .   . .       . .   . . .   . . .   . . 


Chorus 1
|--------------------------------------------------------------------------------------|
|--------------------------------------------------------------------------------------|
|-------------------------------------------8--8--8-8--8-8--8-8-8-8-8--8--8-8--8-8-8---|
|--8~--8--8-8--8-8--8--0~--0--0-0--0-0--0~--8--8--8-8--8-8--8-8-8-8-8--8--8-8--8-8-8---|
|--8~--8--8-8--8-8--8--0~--0--0-0--0-0--0~--6--6--6-6--6-6--6-6-6-6-6--6--6-6--6-6-6/--|
|--8~--8--8-8--8-8--8--0~--0--0-0--0-0--0~---------------------------------------------|

|--------------------------------------------------------------------------------------|
|--------------------------------------------------------------------------------------|
|-------------------------------------------8--8--8-8--8-8--8-8-8-8-8--8--8-8--8-8-8---|
|--8~--8--8-8--8-8--8--0~--0--0-0--0-0--0~--8--8--8-8--8-8--8-8-8-8-8--8--8-8--8-8-8---|
|--8~--8--8-8--8-8--8--0~--0--0-0--0-0--0~--6--6--6-6--6-6--6-6-6-6-6--6--6-6--6-6-6/--|
|--8~--8--8-8--8-8--8--0~--0--0-0--0-0--0~---------------------------------------------|

Solo - Rhythm
|--------------------------------------------------|
|--------------------------------------------------|
|--------------------------------------------------|
|--------------------------------------------------|
|--------------------------------------------------|
|--0-0-10-8-7-0--0-10-8-7-0--0-10-8-7-0--0-10-8-7--|

|------------------------------------------------------------------------------------------|
|------------------------------------------------------------------------------------------|
|------------------------------------------------------------------------------------------|
|--8--8-8-8-8-8-8-8-8-8-8-8-8-8-8-8-8--10--10-10-10-10-10-10-10-10-10-10-10-10-10-10-10-10-|
|--8--8-8-8-8-8-8-8-8-8-8-8-8-8-8-8-8--10--10-10-10-10-10-10-10-10-10-10-10-10-10-10-10-10-|
|--8--8-8-8-8-8-8-8-8-8-8-8-8-8-8-8-8--10--10-10-10-10-10-10-10-10-10-10-10-10-10-10-10-10-|

|----|
|----|
|----|
|-8~~|
|-8~~|
|-8~~| End on this and let it ring through some of the next verse

Verse 2
The guitar doesnt play while the chord rings, then the guitar
starts playing again with this:
|---------------------------------------------------------------|
|---------------------------------------------------------------|
|---------------------------------------------------------------|
|--8--8-8-8-8-8-8-8-8-8-8-8-8-8----0--0-0-0-0-0-0-0-0-0-0-0-0-0-|
|--8--8-8-8-8-8-8-8-8-8-8-8-8-8----0--0-0-0-0-0-0-0-0-0-0-0-0-0-|
|--8--8-8-8-8-8-8-8-8-8-8-8-8-8----0--0-0-0-0-0-0-0-0-0-0-0-0-0-|
      . .   . . .   . . .   . .       . .   . . .   . . .   . . 

|---------------------------------------------------------------|
|---------------------------------------------------------------|
|---------------------------------------------------------------|
|--8--8-8-8-8-8-8-8-8-8-8-8-8-8----0--0-0-0-0-0-0-0-0-0-0-0-0-0-|
|--8--8-8-8-8-8-8-8-8-8-8-8-8-8----0--0-0-0-0-0-0-0-0-0-0-0-0-0-|
|--8--8-8-8-8-8-8-8-8-8-8-8-8-8----0--0-0-0-0-0-0-0-0-0-0-0-0-0-|
      . .   . . .   . . .   . .       . .   . . .   . . .   . . 

Chorus 2
|--------------------------------------------------------------------------------------|
|--------------------------------------------------------------------------------------|
|-------------------------------------------8--8--8-8--8-8--8-8-8-8-8--8--8-8--8-8-8---|
|--8~--8--8-8--8-8--8--0~--0--0-0--0-0--0~--8--8--8-8--8-8--8-8-8-8-8--8--8-8--8-8-8---|
|--8~--8--8-8--8-8--8--0~--0--0-0--0-0--0~--6--6--6-6--6-6--6-6-6-6-6--6--6-6--6-6-6/--|
|--8~--8--8-8--8-8--8--0~--0--0-0--0-0--0~---------------------------------------------|

|--------------------------------------------------------------------------------------|
|--------------------------------------------------------------------------------------|
|-------------------------------------------8--8--8-8--8-8--8-8-8-8-8--8--8-8--8-8-8---|
|--8~--8--8-8--8-8--8--0~--0--0-0--0-0--0~--8--8--8-8--8-8--8-8-8-8-8--8--8-8--8-8-8---|
|--8~--8--8-8--8-8--8--0~--0--0-0--0-0--0~--6--6--6-6--6-6--6-6-6-6-6--6--6-6--6-6-6/--|
|--8~--8--8-8--8-8--8--0~--0--0-0--0-0--0~---------------------------------------------|

Bridge
havent figured this part out yet, itll be coming soon (:

Chorus 3
|--------------------------------------------------------------------------------------|
|--------------------------------------------------------------------------------------|
|-------------------------------------------8--8--8-8--8-8--8-8-8-8-8--8--8-8--8-8-8---|
|--8~--8--8-8--8-8--8--0~--0--0-0--0-0--0~--8--8--8-8--8-8--8-8-8-8-8--8--8-8--8-8-8---|
|--8~--8--8-8--8-8--8--0~--0--0-0--0-0--0~--6--6--6-6--6-6--6-6-6-6-6--6--6-6--6-6-6/--|
|--8~--8--8-8--8-8--8--0~--0--0-0--0-0--0~---------------------------------------------|

|--------------------------------------------------------------------------------------|
|--------------------------------------------------------------------------------------|
|-------------------------------------------8--8--8-8--8-8--8-8-8-8-8--8--8-8--8-8-8---|
|--8~--8--8-8--8-8--8--0~--0--0-0--0-0--0~--8--8--8-8--8-8--8-8-8-8-8--8--8-8--8-8-8---|
|--8~--8--8-8--8-8--8--0~--0--0-0--0-0--0~--6--6--6-6--6-6--6-6-6-6-6--6--6-6--6-6-6/--|
|--8~--8--8-8--8-8--8--0~--0--0-0--0-0--0~---------------------------------------------|

Solo - Rhythm
|---------------------------------------------------------------|
|---------------------------------------------------------------|
|---------------------------------------------------------------|
|---------------------------------------------------------------|
|---------------------------------------------------------------|
|--0-0-10-8-7-0--0-10-8-7-0--0-10-8-7-0--0-10-8-7-0--0-10-8-7-0-|

|-----------------------------|
|-----------------------------|
|-----------------------------|
|-----------------------------|
|-----------------------------|
|--0-10-8-7-0-00-0-0000-------|
            
Hard to play? Try these video lessons and learn fast. | Correct




comments powered by Disqus
↑ Back to top | Tablatures and chords are parodies/interpretations of the original songs. You may use it for private study, scholarship, research or language learning purposes only