>
 >
A Drop In The Ocean

A Drop In The Ocean Guitar Tabs

Parabelle - A Drop In The Ocean chords, tabs, tablatures, lyrics

Guitar lessons | Add/correct | Request | Top 50 tabs Artists:  A B C D E F G H I J K L M N O P Q R S T U V W X Y Z 0-9

A Drop In The Ocean Guitar Tabs – Parabelle

CD, Sheet music, Poster

Do you like A Drop In The Ocean? Share with your friends now
Tabs
----------------------------------------------------------------------------
----------------------------------------------------------------------------

Tuning: Drop C#

Opening/Main Riff

D#|------0-----------2h3-3p2---------0-----------2h3-3p2-------------------|
A#|---3----3-----3-----------3---3-----3-----3-----------3-----------------|
F#|-----0----0-----0---------------0-----0-----0---------------------------|
C#|------------------------------------------------------------------------|
G#|-3----------3-----------------------------------------------------------|
C#|----------------------------2-----------2-------------------------------|

 Some parts are strummed using these chords

D#|------------------------------------------------------------------------|
A#|--3-------------------------3-------------------------------------------|
F#|--0-------------------------x-------------------------------------------|
C#|--2-------------------------2-------------------------------------------|
G#|--3-------------------------2-------------------------------------------|
C#|----------------------------2-------------------------------------------|

Lead Guitar/solo (1:25)

D#|14h15p14----17------------------------------10--------------------------|
A#|---------15----15\12-12~--12\10-10\8-8\7-7----8\7-5~--5/7-7/8-8/10-10/12~
F#|------------------------------------------------------------------------|
C#|------------------------------------------------------------------------|
G#|------------------------------------------------------------------------|
C#|------------------------------------------------------------------------|

D#|14h15p14----17------------------------------10--------------------------|
A#|---------15----15\12-12~--12\10-10\8-8\7-7----8\7-5~--5/7-7/8-8/10-10/12~
F#|------------------------------------------------------------------------|
C#|------------------------------------------------------------------------|
G#|------------------------------------------------------------------------|
C#|------------------------------------------------------------------------|

D#|------------------------------------------------------------------------|
A#|-----------5/7-7/8-8/10-10/12-12~--------12-12-10-8---------------------|
F#|------------------------------------------------------------------------|
C#|------------------------------------------------------------------------|
G#|------------------------------------------------------------------------|
C#|------------------------------------------------------------------------|

D#|----------10--------0--------10--------0--------------------------------|
A#|----5/7-8-----5/7-8----5/7-8-----5/7-8----------------------------------|
F#|------------------------------------------------------------------------|
C#|------------------------------------------------------------------------|
G#|------------------------------------------------------------------------|
C#|------------------------------------------------------------------------|

D#|----------10--------0--------10--------0--13\12~------------------------|
A#|----5/7-8-----5/7-8----5/7-8-----5/7-8----------------------------------|
F#|------------------------------------------------------------------------|
C#|------------------------------------------------------------------------|
G#|------------------------------------------------------------------------|
C#|------------------------------------------------------------------------|

Part before the next verse (3:13)

D#|-----------0-------------0-------------0-------------0------------------|
A#|-----------3-------------3-------------3-------------3------------------|
F#|-----------0-------------0-------------0-------------0------------------|
C#|------------------------------------------------------------------------|
G#|----------------3-33-3-3--------------------3-33-3-3--------------------|
C#|--2-22-2-2--------------------2-22-2-2----------------------------------|
     x xx x x      x xx x x      x xx x x      x xx x x
  
       If I close my eyes...

D#|---------------------------------------------------------------------|
A#|--3--3------3--3------3--------------3--3------3--3------3-----------|
F#|--0----0----0----0----0--------------0----0----0----0----0-----------|
C#|--2------2--0------0--2--------------2------2--0------0--2-----------|
G#|----------------------3----------------------------------3-----------|
C#|---------------------------------------------------------------------|

      And you're running to the bottom...

D#|------------------------------------------------------------------------|
A#|--3--3-3-3-3--3-3-3-3--3-3-3-3--3-3-3-----------------------------------|
F#|--0--0-0-0-0--0-0-0-0--0-0-0-0--0-0-0-----------------------------------|
C#|--2--2-2-2-0--0-0-0-2--2-2-2-2--2-2-2-----------------------------------|
G#|--------------------3--3-3-3-3--3-3-3-----------------------------------|
C#|------------------------------------------------------------------------|

      If I close my eyes... (5:01)

D#|------------------------------------------------------------------------|
A#|--3--------3--------3---------------------------------------------------|
F#|--0--------0--------0---------------------------------------------------|
C#|--2--------0--------2---------------------------------------------------|
G#|--------------------3---------------------------------------------------|
C#|------------------------------------------------------------------------|

Solo (5:26)

D#|---------10--------0--------10--7h8p7---10------------------------------|
A#|---5/7-8-----5/7-8----5/7-8-----------8----8h7--------------------------|
F#|------------------------------------------------------------------------|
C#|------------------------------------------------------------------------|
G#|------------------------------------------------------------------------|
C#|------------------------------------------------------------------------|

D#|---------10--------0--------10--7h8p7---10------------------------------|
A#|---5/7-8-----5/7-8----5/7-8-----------8----8h7--------------------------|
F#|------------------------------------------------------------------------|
C#|------------------------------------------------------------------------|
G#|------------------------------------------------------------------------|
C#|------------------------------------------------------------------------|

D#|-15h14----17-------15h14----15/17--15h14----17-------15h14----17--------|
A#|-------15----15p12-------15--------------15----15p12-------15----15p12--|
F#|------------------------------------------------------------------------|
C#|------------------------------------------------------------------------|
G#|------------------------------------------------------------------------|
C#|------------------------------------------------------------------------|

D#|-15h14----17/19--15h14-------------15h14----17--------------------------|
A#|-------15--------------15-12h15p12-------15----15p12-12\10-10\8-8\7-----|
F#|------------------------------------------------------------------------|
C#|------------------------------------------------------------------------|
G#|------------------------------------------------------------------------|
C#|------------------------------------------------------------------------|

(5:50)

D#|------------------15-14---------------------10--------------------------|
A#|-8~---10~---12~---------15-8~---10~---7h8-8-----7/8~--------------------|
F#|------------------------------------------------------------------------|
C#|------------------------------------------------------------------------|
G#|------------------------------------------------------------------------|
C#|------------------------------------------------------------------------|

D#|---------10--------0--------10--7h8p7---10------------------------------|
A#|---5/7-8-----5/7-8----5/7-8-----------8----8h7--------------------------|
F#|------------------------------------------------------------------------|
C#|------------------------------------------------------------------------|
G#|------------------------------------------------------------------------|
C#|------------------------------------------------------------------------|

D#|---------10--------0--------10--7h8p7---10------------------------------|
A#|---5/7-8-----5/7-8----5/7-8-----------8----8h7-5~~~---------------------|
F#|------------------------------------------------------------------------|
C#|------------------------------------------------------------------------|
G#|------------------------------------------------------------------------|
C#|------------------------------------------------------------------------|


END

************************************

| /   slide up
| \   slide down
| h   hammer-on
| p   pull-off
| ~   vibrato
| +   harmonic
| x   Mute note
| b   Bend
| pb  Pre-bend
| br  Bend release
| pbr Pre-bend release
| brb Bend release bend

************************************





Comments


Popular Parabelle tabs & chords
Kiss The Flag The Widow Tabs
Made Of Tabs
Pray Tabs
Stay Close Tabs
The Conversation Ends Tabs
Us Tabs


Song lyrics



↑ Back to top | Tablatures and chords are parodies/interpretations of the original songs. You may use it for private study, scholarship, research or language learning purposes only
© 2014 AZChords.com Contact us | Privacy policy | DMCA | Add/correct tabs | Request tabs | Top 50 tabs