>
 >
Una Casa Con 10 Pinos

Una Casa Con 10 Pinos Guitar Tabs

Pappo - Una Casa Con 10 Pinos chords, tabs, tablatures, lyrics

Guitar lessons | Add/correct | Request | Top 50 tabs Artists:  A B C D E F G H I J K L M N O P Q R S T U V W X Y Z 0-9

Una Casa Con 10 Pinos Guitar Tabs – Pappo

CD, Sheet music, Poster

Do you like Una Casa Con 10 Pinos? Share with your friends now
ChordsTabsUkulele
Pappo's Blues - Una Casa con 10 Pinos

Chords:     E A G D B e
       G:   3 2 0 0 3 3
       E:   0 2 2 0 0 0
       A:   x 0 2 2 2 0
       D:   x 3 5 5 4 3
       Gm:  3 5 5 3 3 3
       C#5: x 4 6 6 x x
       D5:  x 5 7 7 7 5 
       C:   x 3 2 0 1 0
       D:   x x 0 2 3 2


Intro: G - E (x2)

A               E
Una casa con 10 pinos
A                   E
Hacia el sur hay un lugar
D                Gm
Ahora mismo voy alla
D                  Gm
Porque ya no aguanto mas
C#5
No aguanto mas
           D5
No aguanto mas
                E
Vivir en la ciudad


G               E
Solo humo y soledad
G                 E
Nada mas que respirar
      C
Nunca mas
      D
Nunca mas
         E
En la ciudad

A                  E
Un jardin y mis amigos
A                 E
No se pueden comparar
D                Gm
Con el humo infernal
D                     Gm
De esta guerra de ambicion
C#5
Para lograr
       D5
O conseguir
                   E
Prestigio en la ciudad


G             E
Dinero y nada mas
G                  E
Sin tiempo de observar
      
Un jardin
        D
Bajo el sol
           E
Antes de morir

Solo
-----

Symbols:  b = bend
          br = bend, then release
          bh = bend and hold
          r = release bend, only used after bh
          h = hammer-on
          p = pull-off
          / = slide
          ~ = vibrato

e|-12-12-12h14---------|-14-----------------------------------|
B|--------------12/14~-|----17-14-----------------------------|
G|---------------------|----------16br(18)h14-----------------|
D|---------------------|----------------------16--14h16-14~---|
A|---------------------|--------------------------------------|
E|---------------------|--------------------------------------|

e|---------------------------------|----------17-----------------------|
B|---------------------------------|-------------17--------------------|
G|-------------16br(18)h14-16b(18)-|-16bh(18)-------r16-14----16br(18)-|
D|-------14-16---------------------|-----------------------16----------|
A|-14-16---------------------------|-----------------------------------|
E|---------------------------------|-----------------------------------|

e|-----------------|-------------------------------------------------|
B|-------15h16-16~-|-15-16-16b(18)---15------------------------------|
G|-15h17-----------|--------------------17---15h17--15---------------|
D|-----------------|-----------------------------------17-15h17~--15-|
A|-----------------|-------------------------------------------------|
E|-----------------|-------------------------------------------------|

e|--------------|-------------------|--------------------15~-|
B|-------15-16~-|-15-16-18-18bh(20)-|-r18p16p15--------------|
G|-15-17--------|-------------------|-----------17p16~-------|
D|--------------|-------------------|------------------------|
A|--------------|-------------------|------------------------|
E|--------------|-------------------|------------------------|

e|-------------------|------------------|----------15-------------|
B|-14~-14~-14-14\(0)-|-14~-14~-14-14h15-|-------------------------|
G|-------------------|------------------|-14bh(16)-----r14h12-----|
D|-------------------|------------------|---------------------14~-|
A|-------------------|------------------|-------------------------|
E|-------------------|------------------|-------------------------|

e|-15h17-15h17-15~--------|----------15----------------|----------------|
B|-----------------17-15~-|----------------------------|----------------|
G|------------------------|-14bh(16)----r14h12-14b(16)-|-14-14br(16)-12-|
D|------------------------|----------------------------|----------------|
A|------------------------|----------------------------|----------------|
E|------------------------|----------------------------|----------------|

e|-------------15-17br(19)h15-17b(19)-17b(19)-|-22--20--19--/15--12-------|
B|-------15h17--------------------------------|---------------------15-12-|
G|-14/16--------------------------------------|---------------------------|
D|--------------------------------------------|---------------------------|
A|--------------------------------------------|---------------------------|
E|--------------------------------------------|---------------------------|

e|-----------------|-------------------|------------------------------|
B|-----------------|-------------------|------------------------------|
G|-14br(16)h12-14~-|----14br(16)h12----|-------12-14br(16)h12-16b(18)-|
D|-----------------|-12-------------14-|-12h14------------------------|
A|-----------------|-------------------|------------------------------|
E|-----------------|-------------------|------------------------------|

A                      E
No hay preguntas que hacer
A               E
Una simple reflexion
D                Gm
Solo se puede elegir
D               Gm
Oxidarse o resistir
C#5
Para ganar
      D5
O empatar
              E
Prefiero yo reir

G               E
Mirar dentro de mi
G           E
Fumar o dibujar
G              E
Para que complicar?
G     E
Complicar

Keeps on doing G and E until the end





Comments


Popular Pappo tabs & chords
Descortes Chords
Una Casa Con 10 Pinos Chords
Banquero Blues Tabs
Juntos A La Par Tabs
Pajaro Metalico Tabs
Rock And Roll Y Fiebre Intro Tabs
Ruta 66 Tabs
Sube A Mi Voiture Tabs
Descortes Ukulele
Tren De Las 16 Ukulele


Song lyrics



↑ Back to top | Tablatures and chords are parodies/interpretations of the original songs. You may use it for private study, scholarship, research or language learning purposes only
© 2014 AZChords.com Contact us | Privacy policy | DMCA | Add/correct tabs | Request tabs | Top 50 tabs