>
 >
Tributo A Bb King

Tributo A Bb King Guitar Tabs

Pappo - Tributo A Bb King chords, tabs, tablatures, lyrics

Guitar lessons | Add/correct | Request | Top 50 tabs Artists:  A B C D E F G H I J K L M N O P Q R S T U V W X Y Z 0-9

Tributo A Bb King Guitar Tabs – Pappo

CD, Sheet music, Poster

Do you like Tributo A Bb King? Share with your friends now
Tabs
E|-----------17~~~--19b20-19b20--17-17-----------17-19b20-17-19--17-19b20-|
B|--17----17--------------------------19----17-19--------------19---------|
G|-----14-----------------------------------------------------------------|
D|------------------------------------------------------------------------|
A|------------------------------------------------------------------------|
E|------------------------------------------------------------------------|

E|-19b20-19-17-19--17-------17--19b20-19~~-17-17-15b17-15-12-------------|
B|---------------19--19---17--17---------17-----------------15-12b13-----|
G|------------------------------------------------------------------14---|
D|--------------------------------------------------------------------14-|
A|-----------------------------------------------------------------------|
E|-----------------------------------------------------------------------|

E|-----------------------------------------------------------------------|
B|-----------------13-13-15b16-13b14----------------15b16-15-13b14-------|
G|------12-12-14-14-----------------14-14-14~--12-14--------------14--14-|
D|-14-14------------------------------------------------------------14---|
A|-----------------------------------------------------------------------|
E|-----------------------------------------------------------------------|

E|----------------------8p5----/888888-8/5-5-5---------------------------|
B|-------------10-8h10-----8---/888888-8/5-5-5-----8-10-8----------------|
G|------------9-------------------------------------------9--------------|
D|------7-10p7----------------------------------------------10~~~~~------|
A|--7-10-----------------------------------------------------------------|
E|-----------------------------------------------------------------------|

E|---------------8b9r8---12-10-8-----------------------------------------|
B|-/8-10-7-10~-7------10--------10~~--12-10-12-12b14r12--10~~~-----------|
G|-----------------------------------------------------11------12--9-----|
D|-----------------------------------------------------------------------|
A|-----------------------------------------------------------------------|
E|-----------------------------------------------------------------------|

E|--17//-----------------------------------------------------------------|
B|-------8---8-10--8-8---8---8-------------------------------------------|
G|---------9-----------9---9---9p7--9-8p7------7---5-----/6//------------|
D|----------------------------------------10-7--(7)--7-------------------|
A|-----------------------------------------------------------------------|
E|-----------------------------------------------------------------------|

E|---8-------------------------------------------------------------------|
B|-----10----10----10--8-10-8-10------------/10~~~~------8---10-8---8----|
G|-/9-----/9----/9---------------7b9r7--------------9-9-9-9-7----9-7-9-7-|
D|-------------------------------------10-7------------------------------|
A|-----------------------------------------------------------------------|
E|-----------------------------------------------------------------------|

E|-------------------------------------------------------------/9-/9------|
B|-----------------------------8-8-8----7-10-7-10-7-10-7-10-7--------10~~-|
G|-9-7h9p7--7-------------------9-9-9-10----------------------------------|
D|--------10-10----5-7-5-5------------------------------------------------|
A|----------------------7-7-5---------------------------------------------|
E|------------------------------------------------------------------------|

E|--------------------/9--10-9----/10-9-----------------------------------|
B|-----------8-7-10-7---------10-------10--------10--10~-12b14-12b14-10~~-|
G|-------7-9-----------------------------9~-10-11--11---------------------|
D|---7-10-----------------------------------------------------------------|
A|-10---------------------------------------------------------------------|
E|------------------------------------------------------------------------|

E|-12-11-10-8-10-11-8-10-9b10~~----------8/10-----7-7-7-7/5-5------------|
B|------------------------------7-8p7-10---------------------------------|
G|--------------------------------------------7~~-7-7-7-7/5-5---8b9-9-7--|
D|-----------------------------------------------------------------------|
A|-----------------------------------------------------------------------|
E|-----------------------------------------------------------------------|

E|-----5-5---------------------------------------------------------------|
B|----------2----------------------------10-12--10----12b14-10-12--10~~~-|
G|-5-6-------2-------2-2-2-4b6r4~~~---/11-----11--11-------------11------|
D|------------2-0-------4------------------------------------------------|
A|----------------4------------------------------------------------------|
E|-----------------------------------------------------------------------|

E|--/17-17-17-17--/17-17-17-17--/17-17-17-17--/17-17---------------------|
B|---------------------------------------------------15b17r15------------|
G|------------------------------------------------------------17-14~~----|
D|-----------------------------------------------------------------------|
A|-----------------------------------------------------------------------|
E|-----------------------------------------------------------------------|

E|----17-17-17p19-17--17-17-17-19b20----17~~~~17-15-----------------------|
B|--17--------------19-----------------------------17-15b17r15------------|
G|------------------------------------------------------------17-14-14-17-|
D|------------------------------------------------------------------------|
A|------------------------------------------------------------------------|
E|------------------------------------------------------------------------|

E|------17-17-19b20-17---19b20-17-----------------------------------------|
B|-17-19--------------17---------17--15-17----------------------14-14~~~~-|
G|----------------------------------------17-14----------14-14------------|
D|---------------------------------------------14-12-11-------14----------|
A|------------------------------------------------------------------------|
E|------------------------------------------------------------------------|

E|-----------------------------------------------------------------------|
B|-14-14-15p17-----------------------15b17-15-----------15---------------|
G|------------17b18-16~~~---14-16-14-----------17-17-17----17-14~--------|
D|-----------------------------------------------------------------------|
A|-----------------------------------------------------------------------|
E|-----------------------------------------------------------------------|


E|----------17-15-----------------15-14~~~~~~~~~~~~~~~~~--17///----------|
B|-15b17-17-------17-16-15-----------------------------------------------|
G|-------------------------17-14-----------------------------------------|
D|-----------------------------------------------------------------------|
A|-----------------------------------------------------------------------|
E|-----------------------------------------------------------------------|





Comments


Popular Pappo tabs & chords
Tren De Las 16 Chords
Un Viejo Blues Chords
Una Casa Con 10 Pinos Chords
Blues Local Tabs
Buscando Un Amor Tabs
Pajaro Metalico Tabs
Sube A Mi Voiture Tabs
Trabajando En El Ferrocarril Tabs
Abelardo El Pollo Ukulele
Una Casa Con 10 Pinos Ukulele


Song lyrics



↑ Back to top | Tablatures and chords are parodies/interpretations of the original songs. You may use it for private study, scholarship, research or language learning purposes only
© 2014 AZChords.com Contact us | Privacy policy | DMCA | Add/correct tabs | Request tabs | Top 50 tabs