» » »

Pappo, Longchamps Boogie Tabs (ver.1)

Artists:  A B C D E F G H I J K L M N O P Q R S T U V W X Y Z # 

Longchamps Boogie Tabs (ver.1)

Pappo Tabs
Rating:
5/5 (1 vote)
Longchamps Boogie lessons Tabs too difficult? Try these video lessons and learn fast
                E
los hombres crearon dioses
y tambien la gran ciudad
pero siempre tienen algo
algo para rechazar
      A
por ejemplo mis ideas
a quien le puede importar
E
la verdadera importancia
a ninguno se la dan
B
la lluvia sigue cayendo
      B   Bb  A
sobre un asfalto gris
              E
aqui en longchamps

E
abandone totalmente
lo que usted pueda pensar
si es que tiene algun signo
o decir algo especial
      A
no pretenda tanta suerte
nadie lo va a escuchar
E
no notan la diferencia
lo que ocurre de verdad
B
la lluvia sigue cayendo
      B   Bb  A
sobre un asfalto gris
              E
aqui en longchamps
longchamps boogie

solo (Ex4 Ax2 Ex4 B B Bb Ax2 Ex2)

E
cuando algo indiferente
posa en los hojos de dios
nuestro pasado presente
necesita algoi de amor
    A
el salir del mecanismo
eso lo puede afectar
E
mantenerse en el anonimato, je je
eso es fundamental
B
la lluvia sigue cayendo
      B   Bb  A
sobre un asfalto gris
              E
aqui en longchamps

longchamps
longchamps boogie
longchamps boogie
longchamps boogie

longchamps
longchamps boogie
longchamps boogie
longchamps boogie

E
|--------------------------------------|
|--------------------------------------|
|--------------------------------------|
|--------------------------------------|
|--------------------------------------|
|--0--0---0---0---0---0---0--3---5--3--|
A
|--------------------------------------|
|--------------------------------------|
|--------------------------------------|
|--------------------------------------|
|--0--0---0---0---0---0---0--3---5--3--|
|--------------------------------------|

final
|--------------|-------------|-------------|-----------------|
|--------------|-------------|-------------|-----------------|
|--------------|-12----------|-------------|-----------------|
|--12-12-12-14-|----14-12-14-|-12-12-12-14-|-0-2-0-2-0-2-0-2-|
|--------------|-------------|-------------|-----------------|
|--------------|-------------|-------------|-----------------|


|--------------|-------------|-------------|
|--------------|-------------|-------------|
|--------------|-12-12-12----|-------------|
|--12-12-12-14-|----------14-|-12-12-12-14-|
|--------------|-------------|-------------|
|--------------|-------------|-------------|
            
Submit corrections

comments powered by Disqus
↑ Back to top | Pappo Tabs for Longchamps Boogie. Lyrics for acoustic guitar and electric guitar. Tablatures and chords are parodies/interpretations of the original songs. You may use it for private study, scholarship, research or language learning purposes only