» » »

Gato De La Calle Negra Tabs (ver.1)

Artists:  A B C D E F G H I J K L M N O P Q R S T U V W X Y Z # 

Gato De La Calle Negra Tabs (ver.1)

Pappo
Rating:
5/5 (1 vote)

Hard to play? Try these video lessons and learn fast.
                Intro: riff bajo x4
       riff guit X8


muerto de hambre estás, yo te comprendo.


   Si te cruzas,    por delante,
            
mala suerte das!



y no te hagás problemas por tu vida.


   Si te cruzas,    por delante,
            
mala suerte das!

Solo: x16 
      x4


y no te hagás problemas por tu vida.


   Si te cruzas,    por delante,
            
mala suerte das!

solo: x16
      
      x4

Lloras porque te tiran zapatos...

Si te cruzas...

Outro: 


 riff
      
    **-----------------------------**
bajo**-----------------------------**
    **-----------3-2-----7-7-5^7\--**
    **-(0)-0-2-3-----3-0-----------**
    **                             **
    **-----------------------------**
    **-----------------------------**
guit**-----------------------------**
    **-----------5-4---------------**
    **-(2)-2---5-3-2---2-----------**
    **-(0)-0-2-3-----3-0-----------**


   
**---------------------------------------------------**
**---------------------------------------------------**
**----------------------------------2-2-2---2-2-2-2--**
**----------------------------------2-2-2---2-2-2-2--**
**----6-9-6-----2-5-2-------1-4-1---0-0-0---0-0-0-0--**
**--7---------3-------3---2--------------------------**

 solo
 
*--7-5---3---*-------*-7-5-5b^r5^3^0---*---7\--*
*----------5-*-3-3-5-*---------------5-*-3-7\--*-
*------------*-------*-----------------*-------*
*------------*-------*-----------------*-------*
*------------*-------*-----------------*-------*
*------------*-------*-----------------*-------*

*-----------------------12-------------------------------------------------*
*--------------------------15-12-------------------------------------------*
*----------------12-14b----------14-12----14b^r14-12--12-12-12-12-14^12----*
*----------12-14-----------------------14-------------------------------14-*
*-10-12-14-----------------------------------------------------------------*
*--------------------------------------------------------------------------*

*-----------------------12-12--------------------*-12---------------------------------*
*-----------------------------15-12----------15b-*----15-12---------------------------*
*----------------12-14b-------------14-12--------*----------14b^r14-12-12-12----------*
*----------12-14--------------------------14-----*---------------------------14-12-14-*
*-10-12-14---------------------------------------*------------------------------------*
*------------------------------------------------*------------------------------------*

  B5
*-------15b—-15b-15-12-*-----12------------------------*
*-15-12----------------*-15b----15-12------------------*
*----------------------*--------------14b^r14-12-14-12-*
*----------------------*-------------------------------*
*----------------------*-------------------------------*
*----------------------*-------------------------------*
  G5              F#5               A5                                            
*-----------------------------------12---------------------------------------
*--------------------------------------15-12---------------------------------
*----------------------------12-14b----------14b^r14^12-14-12-14-------------
*-14-12-12-12-12-12\11-12-14-------------------------------------14-12---14--
**----------------------------------------------------------------------14-12
*----------------------------------------------------------------------------

-----------
-----------
-----------
-----------
-----------
-15-12-----
            
Hard to play? Try these video lessons and learn fast. | Correct




comments powered by Disqus
↑ Back to top | Tablatures and chords are parodies/interpretations of the original songs. You may use it for private study, scholarship, research or language learning purposes only