» » »

Pappo, Descortes Tabs (ver.1)

Artists:  A B C D E F G H I J K L M N O P Q R S T U V W X Y Z # 

Descortes Tabs (ver.1)

Pappo Tabs
Rating:
5/5 (1 vote)
Descortes lessons Tabs too difficult? Try these video lessons and learn fast
                E|----------------7-9-7-------------7b9-7~~------------------------------|
B|------5-7-5-7b9-------9-7b8r7-5----------7b9r7-5-7---5~~~-7-5-7b8r7----|
G|--4-6---------------------------6------------------6-------------------|
D|-----------------------------------------------------------------------|
A|-----------------------------------------------------------------------|
E|-----------------------------------------------------------------------|

E|--9-7---------------------------12-----------14b16-12--16----16--------|
B|------9-7b9r7-5---7--------12-14--15b17~--14-------------17----17------|
G|----------------6----11/13---------------------------------16----16----|
D|-----------------------------------------------------------------------|
A|-----------------------------------------------------------------------|
E|-----------------------------------------------------------------------|

E|---------------------------4-3-2--------9-7----9---9--9-7--------------|
B|-10-12-------5-------------x-x-x---/9-9-----7b9-7b9------9-7b9r7-5-7-5-|
G|------12b13----4-2-2-------4-3-2----------------------------------6----|
D|---------------------5b6-----------------------------------------------|
A|-----------------------------------------------------------------------|
E|-----------------------------------------------------------------------|

E|----4-7~~--------12-14b16-12--17-12-15-12--12-15-12-14-12--12----------|
B|--7-------/12-14-------------------------14--------------15--15b17~~~~-|
G|-----------------------------------------------------------------------|
D|-----------------------------------------------------------------------|
A|-----------------------------------------------------------------------|
E|-----------------------------------------------------------------------|

E|-----------------------------12-----12-----12------7==-7----------------|
B|------------------------12b14==12b14==12b14==r12---7h9-7-------5--------|
G|-11b13r11-9-11~~-11-9~~----------------------------------4-4p6-4--------|
D|----------------------------------------------------------------4-4p6-4-|
A|------------------------------------------------------------------------|
E|------------------------------------------------------------------------|
E|----------------7-9-7-------------7b9-7~~-------------------------------|
B|------5-7-5-7b9-------9-7b8r7-5----------7b9r7-5-7---5~~~-7-5-7b8r7-----|
G|--4-6---------------------------6------------------6--------------------|
D|------------------------------------------------------------------------|
A|------------------------------------------------------------------------|
E|------------------------------------------------------------------------|

E|--9-7---------------------------12-----------14b16-12--16----16--------|
B|------9-7b9r7-5---7--------12-14--15b17~--14-------------17----17------|
G|----------------6----11/13---------------------------------16----16----|
D|-----------------------------------------------------------------------|
A|-----------------------------------------------------------------------|
E|-----------------------------------------------------------------------|

E|---------------------------4-3-2--------9-7----9---9--9-7--------------|
B|-10-12-------5-------------x-x-x---/9-9-----7b9-7b9------9-7b9r7-5-7-5-|
G|------12b13----4-2-2-------4-3-2----------------------------------6----|
D|---------------------5b6-----------------------------------------------|
A|-----------------------------------------------------------------------|
E|-----------------------------------------------------------------------|

E|----4-7~~--------12-14b16-12--17-12-15-12--12-15-12-14-12--12----------|
B|--7-------/12-14-------------------------14--------------15--15b17~~~~-|
G|-----------------------------------------------------------------------|
D|-----------------------------------------------------------------------|
A|-----------------------------------------------------------------------|
E|-----------------------------------------------------------------------|

E|-----------------------------12-----12-----12------7==-7----------------|
B|------------------------12b14==12b14==12b14==r12---7h9-7-------5--------|
G|-11b13r11-9-11~~-11-9~~----------------------------------4-4p6-4--------|
D|----------------------------------------------------------------4-4p6-4-|
A|------------------------------------------------------------------------|
E|------------------------------------------------------------------------|
            

comments powered by Disqus
↑ Back to top | Pappo Tabs for Descortes. Lyrics for acoustic guitar and electric guitar. Tablatures and chords are parodies/interpretations of the original songs. You may use it for private study, scholarship, research or language learning purposes only