» » »

Pappo, Algo Ha Cambiado Tabs (ver.1)

Artists:  A B C D E F G H I J K L M N O P Q R S T U V W X Y Z # 

Algo Ha Cambiado Tabs (ver.1)

Pappo Tabs
 Rating:
4.3/5 (6 votes)
Algo Ha Cambiado lessons Tabs too difficult? Try these video lessons and learn fast
                Intro: x8 


 todo lo que soy.


 F#5-G5-G#5-A5
    quiero vivir.

x4


 de acuerdo a mi destino.


 F#5-G5-G#5-A5
    quiero vivir.

solo: A5 x28
      riff 3 x2
      riff 4 x2
       x2

Voy a ver nacer el sol...

Algo ha cambiado...

(A5-Bb5 A5-Bb5 A5-Bb5 A5)x7

 x14
(A5-Bb5) x12
 A5

  riff 1                      riff 2
                         
*--------------------------**-------------------------------------------------*
*--------------------------**-------------------------------------------------*
*--------------------------**--------4b^^4^^4^^4^^r4---2-----2----------------*
*--7--7---5----------------**--4--4—(al-go-ha-cam-bia-do)--4-----4-2----------*
*--7--7-----7-6-5----------**--4--4----------------------------------4-3-2-0--*
*--5--5-----------8-5-3-0--**--2--2-------------------------------------------*

 riff 3
*--------------------------*--------------------*
*--8b-8b-8-5---------------*-8b-8b-8-5----------*
**-----------8-7-5-7-5-----*-----------7b(1/2)-**
**---------------------7---*-------------------**
*------------------------7-*--------------------*
*--------------------------*--------------------*

 riff 4
*---------------------------------------------*
*---------------------------------------------*
*-------------------------7-------------------*
*--7-9-7---9-7-9---7-9-7--7---9-7-------------*
*--7-9-7---9-7-9---7-9-7----------9-8-7-------*
*---------------------------------------10-7--*
            
Submit corrections

comments powered by Disqus
↑ Back to top | Pappo Tabs for Algo Ha Cambiado. Lyrics for acoustic guitar and electric guitar. Tablatures and chords are parodies/interpretations of the original songs. You may use it for private study, scholarship, research or language learning purposes only