» » »

Paper Route, Wish Tabs (ver.1)

Artists:  A B C D E F G H I J K L M N O P Q R S T U V W X Y Z # 

Wish Tabs (ver.1)

Paper Route Tabs
 Rating:
4/5 (6 votes)
Wish lessons Tabs too difficult? Try these video lessons and learn fast
1
                Wish-Paper Route

Tuning: EBGDAE

INTRO/VERSE
E|----9--9--9--9---9--9--9--9----9--9---5-5-5-5--5-5-5-5---5-5---------------|
B|---10-10-10-10--10-10-10-10---10-10---5-5-5-5--5-5-5-5---5-5---------------|
G|---11-11-11-11--11-11-11-11---11-11---6-6-6-6--6-6-6-6---6-6---------------|
D|---11-11-11-11--11-11-11-11---11-11---7-7-7-7--7-7-7-7---7-7---------------|
A|----9--9--9--9---9--9--9--9----9--9---7-7-7-7--7-7-7-7---7-7---------------|
E|----9--9--9--9---9--9--9--9----9--9---5-5-5-5--5-5-5-5---5-5---------------|

E|-----x--x--x--x---x--x--x--x----x-x---7-7-7-7--7-7-7-7---7-7---------------|
B|-----9--9--9--9---9--9--9--9----9-9---7-7-7-7--7-7-7-7---7-7---------------|
G|-----9--9--9--9---9--9--9--9----9-9---8-8-8-8--8-8-8-8---8-8---------------|
D|-----9--9--9--9---9--9--9--9----9-9---9-9-9-9--9-9-9-9---9-9---------------|
A|-----7--7--7--7---7--7--7--7----7-7---9-9-9-9--9-9-9-9---9-9---------------|
E|-----x--x--x--x---x--x--x--x----x-x---7-7-7-7--7-7-7-7---7-7---------------|
Chorus
E|----5-5-5-5-5-5-5-5--5-5-5-5-5-5-5-5--4-4-4-4-4-4-4-4--4-4-4-4-4-4-4-4-----|
B|----5-5-5-5-5-5-5-5--5-5-5-5-5-5-5-5--5-5-5-5-5-5-5-5--5-5-5-5-5-5-5-5-----|
G|----6-6-6-6-6-6-6-6--6-6-6-6-6-6-6-6--6-6-6-6-6-6-6-6--6-6-6-6-6-6-6-6-----|
D|----7-7-7-7-7-7-7-7--7-7-7-7-7-7-7-7--6-6-6-6-6-6-6-6--6-6-6-6-6-6-6-6-----|
A|----7-7-7-7-7-7-7-7--7-7-7-7-7-7-7-7--4-4-4-4-4-4-4-4--4-4-4-4-4-4-4-4-----|
E|----5-5-5-5-5-5-5-5--5-5-5-5-5-5-5-5--4-4-4-4-4-4-4-4--4-4-4-4-4-4-4-4-----|

E|----0-0-0-0-0-0-0-0--0-0-0-0-0-0-0-0--2-2-2-2-2-2-2-2--2-2-2-2-2-2-2-2-----|
B|----0-0-0-0-0-0-0-0--0-0-0-0-0-0-0-0--2-2-2-2-2-2-2-2--2-2-2-2-2-2-2-2-----|
G|----1-1-1-1-1-1-1-1--1-1-1-1-1-1-1-1--3-3-3-3-3-3-3-3--3-3-3-3-3-3-3-3-----|
D|----2-2-2-2-2-2-2-2--2-2-2-2-2-2-2-2--4-4-4-4-4-4-4-4--4-4-4-4-4-4-4-4-----|
A|----2-2-2-2-2-2-2-2--2-2-2-2-2-2-2-2--4-4-4-4-4-4-4-4--4-4-4-4-4-4-4-4-----|
E|----0-0-0-0-0-0-0-0--0-0-0-0-0-0-0-0--2-2-2-2-2-2-2-2--2-2-2-2-2-2-2-2-----|
 Verse 2
E|----9--9--9--9---9--9--9--9----9--9---5-5-5-5--5-5-5-5---5-5---------------|
B|---10-10-10-10--10-10-10-10---10-10---5-5-5-5--5-5-5-5---5-5---------------|
G|---11-11-11-11--11-11-11-11---11-11---6-6-6-6--6-6-6-6---6-6---------------|
D|---11-11-11-11--11-11-11-11---11-11---7-7-7-7--7-7-7-7---7-7---------------|
A|----9--9--9--9---9--9--9--9----9--9---7-7-7-7--7-7-7-7---7-7---------------|
E|----9--9--9--9---9--9--9--9----9--9---5-5-5-5--5-5-5-5---5-5---------------|

E|-----x--x--x--x---x--x--x--x----x-x---7-7-7-7--7-7-7-7---7-7---------------|
B|-----9--9--9--9---9--9--9--9----9-9---7-7-7-7--7-7-7-7---7-7---------------|
G|-----9--9--9--9---9--9--9--9----9-9---8-8-8-8--8-8-8-8---8-8---------------|
D|-----9--9--9--9---9--9--9--9----9-9---9-9-9-9--9-9-9-9---9-9---------------|
A|-----7--7--7--7---7--7--7--7----7-7---9-9-9-9--9-9-9-9---9-9---------------|
E|-----x--x--x--x---x--x--x--x----x-x---7-7-7-7--7-7-7-7---7-7---------------|
Chorus
E|----5-5-5-5-5-5-5-5--5-5-5-5-5-5-5-5--4-4-4-4-4-4-4-4--4-4-4-4-4-4-4-4-----|
B|----5-5-5-5-5-5-5-5--5-5-5-5-5-5-5-5--5-5-5-5-5-5-5-5--5-5-5-5-5-5-5-5-----|
G|----6-6-6-6-6-6-6-6--6-6-6-6-6-6-6-6--6-6-6-6-6-6-6-6--6-6-6-6-6-6-6-6-----|
D|----7-7-7-7-7-7-7-7--7-7-7-7-7-7-7-7--6-6-6-6-6-6-6-6--6-6-6-6-6-6-6-6-----|
A|----7-7-7-7-7-7-7-7--7-7-7-7-7-7-7-7--4-4-4-4-4-4-4-4--4-4-4-4-4-4-4-4-----|
E|----5-5-5-5-5-5-5-5--5-5-5-5-5-5-5-5--4-4-4-4-4-4-4-4--4-4-4-4-4-4-4-4-----|

E|----0-0-0-0-0-0-0-0--0-0-0-0-0-0-0-0--2-2-2-2-2-2-2-2--2-2-2-2-2-2-2-2-----|
B|----0-0-0-0-0-0-0-0--0-0-0-0-0-0-0-0--2-2-2-2-2-2-2-2--2-2-2-2-2-2-2-2-----|
G|----1-1-1-1-1-1-1-1--1-1-1-1-1-1-1-1--3-3-3-3-3-3-3-3--3-3-3-3-3-3-3-3-----|
D|----2-2-2-2-2-2-2-2--2-2-2-2-2-2-2-2--4-4-4-4-4-4-4-4--4-4-4-4-4-4-4-4-----|
A|----2-2-2-2-2-2-2-2--2-2-2-2-2-2-2-2--4-4-4-4-4-4-4-4--4-4-4-4-4-4-4-4-----|
E|----0-0-0-0-0-0-0-0--0-0-0-0-0-0-0-0--2-2-2-2-2-2-2-2--2-2-2-2-2-2-2-2-----|
Bridge/Piano
E|---------------------------------------------------------------------------|
B|---------------------------------------------------------------------------|
G|-------------------------9-------------------------------9-----------------|
D|-11-11-11--9--11-11-9-11--------11-11-11--9--11-11-9-11--------------------|
A|---------------------------------------------------------------------------|
E|---------------------------------------------------------------------------|

E|---------------------------------------------------------------------------|
B|-------------------------9-------------------------------9-----------------|
G|-11-11-11--9--11-11-9-11--------11-11-11--9--11-11-9-11--------------------|
D|---------------------------------------------------------------------------|
A|---------------------------------------------------------------------------|
E|---------------------------------------------------------------------------|

E|---------------------------------------------------------------------------|
B|-----9---------------9-----------------9----------------------9------------|
G|-------------------------------------------11-11--9--------------11-11---9-|
D|-11-----11---9--11------11----9-9--11------------------9--11---------------|
A|---------------------------------------------------------------------------|
E|---------------------------------------------------------------------------|
Chorus
E|----5-5-5-5-5-5-5-5--5-5-5-5-5-5-5-5--4-4-4-4-4-4-4-4--4-4-4-4-4-4-4-4-----|
B|----5-5-5-5-5-5-5-5--5-5-5-5-5-5-5-5--5-5-5-5-5-5-5-5--5-5-5-5-5-5-5-5-----|
G|----6-6-6-6-6-6-6-6--6-6-6-6-6-6-6-6--6-6-6-6-6-6-6-6--6-6-6-6-6-6-6-6-----|
D|----7-7-7-7-7-7-7-7--7-7-7-7-7-7-7-7--6-6-6-6-6-6-6-6--6-6-6-6-6-6-6-6-----|
A|----7-7-7-7-7-7-7-7--7-7-7-7-7-7-7-7--4-4-4-4-4-4-4-4--4-4-4-4-4-4-4-4-----|
E|----5-5-5-5-5-5-5-5--5-5-5-5-5-5-5-5--4-4-4-4-4-4-4-4--4-4-4-4-4-4-4-4-----|

E|----0-0-0-0-0-0-0-0--0-0-0-0-0-0-0-0--2-2-2-2-2-2-2-2--2-2-2-2-2-2-2-2-----|
B|----0-0-0-0-0-0-0-0--0-0-0-0-0-0-0-0--2-2-2-2-2-2-2-2--2-2-2-2-2-2-2-2-----|
G|----1-1-1-1-1-1-1-1--1-1-1-1-1-1-1-1--3-3-3-3-3-3-3-3--3-3-3-3-3-3-3-3-----|
D|----2-2-2-2-2-2-2-2--2-2-2-2-2-2-2-2--4-4-4-4-4-4-4-4--4-4-4-4-4-4-4-4-----|
A|----2-2-2-2-2-2-2-2--2-2-2-2-2-2-2-2--4-4-4-4-4-4-4-4--4-4-4-4-4-4-4-4-----|
E|----0-0-0-0-0-0-0-0--0-0-0-0-0-0-0-0--2-2-2-2-2-2-2-2--2-2-2-2-2-2-2-2-----|

E|---------------------------------------------------------------------------|
B|-----9---------------9-----------------9----------------------9------------|
G|-------------------------------------------11-11--9--------------11-11---9-|
D|-11-----11---9--11------11----9-9--11------------------9--11---------------|
A|---------------------------------------------------------------------------|
E|---------------------------------------------------------------------------|
            
Submit corrections

comments powered by Disqus
↑ Back to top | Paper Route Tabs for Wish. Lyrics for acoustic guitar and electric guitar. 1 Tablatures and chords are parodies/interpretations of the original songs. You may use it for private study, scholarship, research or language learning purposes only