>
 >
Last Time

Last Time Guitar Tabs

Paper Route - Last Time chords, tabs, tablatures, lyrics

Guitar lessons | Add/correct | Request | Top 50 tabs Artists:  A B C D E F G H I J K L M N O P Q R S T U V W X Y Z 0-9

Last Time Guitar Tabs – Paper Route

CD, Sheet music, Poster

Do you like Last Time? Share with your friends now
ChordsTabsUkulele
-------------------------------------------------------------------------------
                             Last Time– Paper Route
-------------------------------------------------------------------------------

Tuning: Standard
Intro
Verse                         live version
e|------2----4----7--------------|----7-|---|---7-|----|----7-|---|----9-|---|
B|------2----4----7--------------|--7-x3----|--7-x3----|--7—x3----|--12-x3---|
G|-1----3----4----8--------------|-9----|---|-8---|----|-6----|---|-11---|---|
D|-2----4----6----9----------------------------------------------------------|
A|-2----4----6----9----------7------------6----------4----------9------------|
E|------2----4----7----------------------------------------------------------|

Chorus  This is the last time…     it’s finally over …
e|---------------------------------------------------------------------------|
B|------|-0-----|--------|-0----|-----------|-0------------------------------|
G|------|--1---x3--------|--3---x3----------|--4-x3--------------------------|
D|---2--|---2---|----4---|---4--|------6----|---6----------------------------|
A|-2---2-----------4---4-------------6---6-----------------------------------|
E|---------------------------------------------------------------------------|
       It’s finally over……
e|---------2------0----------------------------------------------------------|
B|--------------------------4--5--4--0---------------------------------------|
G|---4-------4--------4------------------------------------------------------|
D|-4---4-------4--------4----------------------------------------------------|
A|---------------------------------------------------------------------------|
E|---------------------------------------------------------------------------|

Intro/Solo Slide
e|--------7--6-------6---4-----7/12--11-------11----9---------12-------------|
B|--5/7---------7----------x2------------12-----------x2---12----------------|
G|---------------------------------------------------------------------------|
D|---------------------------------------------------------------------------|
A|---------------------------------------------------------------------------|
E|---------------------------------------------------------------------------|


Chorus/Bridge    let me hold your hand my dear……
e|----------2----4---7-------------------------------------------------------|
B|----------2----4---7-------------------------------------------------------|
G|-----1----3----4---8-------------------------------------------------------|
D|-----2----4----6---9-------------------------------------------------------|
A|-----2----4----6---9-------------------------------------------------------|
E|----------2----4---7-------------------------------------------------------|

No Sudden Revelation
E|-------------------------|--------------------------11-13-14-16-18-14------|
B|-----------------11------|----------------11-12-14-------------------------|
G|-11-10-13-11-13----10-11-|-11-10-13-11-13----------------------------------|
D|-------------------------|-------------------------------------------------|
A|-------------------------|-------------------------------------------------|
E|-------------------------|-------------------------------------------------|

Piano
E|---------------------------------------------------------------------------|
B|---------------------------------------------------------------------------|
G|----3---------------------------3------------------------------------------|
D|--------6---4\1------1/4------------6----4------4--------------------------|
A|-4----------------4---------4-----------------4----------------------------|
E|---------------------------------------------------------------------------|


| /  slide up
| \  slide down
| h  hammer-on
| p  pull-off
| ~  vibrato
| +  harmonic
| x  Mute note
===============================================================================





Comments


Popular Paper Route tabs & chords
Be Healed Chords
Calm My Soul 1 Chords
Dance On Our Graves Chords
Dance On Our Graves 1 Chords
Lovers Anthem Chords
City Trucks Tabs
City Trucks 1 Tabs
Are We All Forgotten Ukulele
Love Letters Ukulele
You Kill Me Ukulele


Song lyrics



↑ Back to top | Tablatures and chords are parodies/interpretations of the original songs. You may use it for private study, scholarship, research or language learning purposes only
© 2014 AZChords.com Contact us | Privacy policy | DMCA | Add/correct tabs | Request tabs | Top 50 tabs