» » »

Papa Roach, World Around You Tabs (ver.1)

Artists:  A B C D E F G H I J K L M N O P Q R S T U V W X Y Z # 

World Around You Tabs (ver.1)

Papa Roach Tabs
 Rating:
4/5 (4 votes)
World Around You lessons Tabs too difficult? Try these video lessons and learn fast
                This isn't the first version of the song on the site, but the one that
was on here was kind of confusing and was missing a few things, so I'm going to try to 
it for everyone.

The only problem was the second part of the bridge rhythm, post a
comment if u got anything different, mine sounds OK but can probably
be improved

The World Around You, Drop D
Intro Part 1/Verse
|---------10--------8~--------------10--------8-----------------|
|------------------------------------------------------8~-------|
|----8---------8---------------8---------8--------8-------------|
|-10---10--------10---------10---10--------10-------10----------|
|---------------------------------------------------------------|
|---------------------------------------------------------------|
Intro Part 2 (variation of part 1, ends early)
|---------10---------8~--------------10--------8~-------|
|-------------------------------------------------------|
|----8---------8-----------------8--------8-------------|
|-10---10--------10-----------10---10-------10----------|
|-------------------------------------------------------|
|-------------------------------------------------------|
Intro Part 3/Chorus/Pre-Chorus Rhythm
|-------------------------------------------------------------------------|
|-------------------------------------------------------------------------|
|-------------------------------------------------------------------------|
|-10---10---10-10-10---10-10-10-10---10-10--\6--x-3--x-8--x-5---5-5---5---|
|-10---10---10-10-10---10-10-10-10---10-10--\6--x-3--x-8--x-5---5-5---5---|
|-10---10---10-10-10---10-10-10-10---10-10--\6--x-3--x-8--x-5---5-5---5---|
Intro Part 4/Pre-Chorus Lead (rhythm is as described above)
|--------------------------------------------------------------------------|
|--------------------------------------------------------------------------|
|-----------8-10-10^--10p8-------------------------------------------------|
|-10~--8h10----------------10--10-8-10p8----8------------------------------|
|----------------------------------------10---10--8-6--6h8-6h8-6-6h8p6~-6--|
|--------------------------------------------------------------------------|
End on:
|----------                  -|
|----------                  -|
|----------                  -|
|-10~------                  -|
|-10~------   ...let ring    -|
|-10~------                  -|
Repeat Verse riff x4, pre-chorus, chorus x2, verse x4, pre-chorus, chorus x4
For second half of second chorus, lead plays:
|-8-8-8-8-8-8-8-8-8-8-6--8--6-8-6--11--6-8--6--11--6-8--6-8--6-|
|--------------------------------------------------------------|
|--------------------------------------------------------------|
|--------------------------------------------------------------|
|--------------------------------------------------------------|
|--------------------------------------------------------------|
Bridge (play second part x4)
|-------------------|--11~-------5~-------2~---|
|-------------------|--12~-------6~-------3~---|
|-------------------|--13~-------7~-------4~---|
|-6~-------8~-------|--------------------------|
|-6~-------8~-------|--------------------------|
|-6~-------8~-------|--------------------------|
Second part lead (kicks in at 3:02, play twice)
|-----------------------------------------------------------------|
|-----------------------------------------------------------------|
|-----------------------------------------------------------------|
|---------------------------------6-6-6-6-6-6-6-6-5-5-5-5-5-5-5-5-|
|-3-3-3-3-3-3-3-3-6-6-6-6-6-6-6-6---------------------------------|
|-----------------------------------------------------------------|
Repeat pre-chorus, solo changes to:
|--------------------------------------------------------------------------|
|--------------------------------------------------------------------------|
|-----------8-10-10^--10p8-------------------------------------------------|
|-10~--8h10----------------10--10-8-10p8----8------------------------------|
|----------------------------------------10---10--8-6--6/10-13-10-13~--10\-|
|--------------------------------------------------------------------------|
Repeat Chorus x4, verse x4 for outro, rhythm plays this behind verse riff:
|---------------------------------|
|---------------------------------|
|------------------------10----8--|
|--10----6----3----10----10----8--|
|--10----6----3----10-----8----6--|
|--10----6----3----10-------------|
| x16 | x8 | x8 | x16 |  x8 |  x8 |
End song on:
|-----------|
|-----------|
|-----------|
|-10~-------|
|-10~-------|
|-10~-------|       That's it. Sweet.
            
Submit corrections

comments powered by Disqus
↑ Back to top | Papa Roach Tabs for World Around You. Lyrics for acoustic guitar and electric guitar. Tablatures and chords are parodies/interpretations of the original songs. You may use it for private study, scholarship, research or language learning purposes only