» » »

Papa Roach, Tight Rope Tabs (ver.3)

Artists:  A B C D E F G H I J K L M N O P Q R S T U V W X Y Z # 

Tight Rope Tabs (ver.3)

Papa Roach Tabs
 Rating:
4/5 (4 votes)
Tight Rope lessons Tabs too difficult? Try these video lessons and learn fast
                This is the final version now.  I've tabbed it for two guitars so you can play it with a mate, or just pick and choose the parts you want to play.  There were some parts I wasn't sure about so I just improvised a bit.


INTRO

Guitar 1
	Play with light reverb or echo
e|--5--5---3--3---0--0---3--3----------|
b|--5--5---3--3---0--0---3--3----------|
g|--5--5---4--4---2--2---4--4----------| X2
d|-------------------------------------|
a|-------------------------------------|
e|-------------------------------------|
	Play once then guitar 2 comes in

Guitar 2

e|-------------------------------------|
b|-------------------------------------|
g|----------4--4---2--2---4--4---------| X1
d|---7--7---5--5---2--2---5--5---------|
a|---7--7---5--5---2--2---5--5---------|
e|---5--5---3--3---0--0---3--3---------|


VERSE

Guitar 1
	Play with light reverb or echo
e|--5--5---3--3---0--0---3--3----------|
b|--5--5---3--3---0--0---3--3----------|
g|--5--5---4--4---2--2---4--4----------| X2
d|-------------------------------------|
a|-------------------------------------|
e|-------------------------------------|
	
Guitar 2
	
e|-------------------------------------|
b|-------------------------------------|
g|----------4--4---2--2---4--4---------| X2
d|---7--7---5--5---2--2---5--5---------|
a|---7--7---5--5---2--2---5--5---------|
e|---5--5---3--3---0--0---3--3---------|


PRE-CHORUS 1

Guitar 2
	With reverb and wah
e|-------------------------------------|
b|-------------------------------------|
g|----------5-7~-5---------------------| X1
d|---5h7-5~--------7-------------------|
a|-------------------------------------|
e|-------------------------------------|


CHORUS

Guitar 1

e|--------5--------3--------0--------3-|
b|-------5-5------3-3------0-0------3-3|
g|-------------------------------------| X4
d|-------------------------------------|
a|-------------------------------------|
e|-------------------------------------|

Guitar 2

e|-------------------------------------|
b|-------------------------------------|
g|------------4--------2--------4------| X4
d|---7----7---5----5---2----2---5----5-|
a|---7---7-7--5---5-5--2---2-2--5---5-5|
e|---5--------3--------0--------3------|


PRE-CHORUS 2

Guitar 1
	play the -7- with fast up and down strokes, if you have a tremello pedal use that        -5-
	With reverb
e|-------------------------------------|
b|-------------------------------------|
g|----------------------7--------------| X1
d|-----7777777777777777----------------|
a|-----5555555555555555----------------|
e|-------------------------------------|


BRIDGE

There is no guitar part in the bridge


PRE-CHORUS 3

Guitar 2
	With reverb
e|-------------------------------------|
b|------5-let ring---------------------|
g|-------------------------------------| X1
d|----7--------------------------------|
a|-------------------------------------|
e|--5----------------------------------|


PRE-SOLO

Guitar 1
	
e|-----------------------------------------|
b|-----------------------------------------|
g|-----------44444---22222---44444---------| X2
d|---77777---55555---22222---55555---------|
a|---77777---55555---22222---55555---------|
e|---55555---33333---00000---33333---------|

Guitar 2

Improvise something along the lines of PRE-CHORUS 1 after guitar 1 has strummed
the above through once


SOLO

Guitar 2

e|--------------------------------------------------|
b|------------------------------------5-------------|
g|----------5-------------7-------------------------|
d|--5h7-5-7----7--7-7-5h7---7-5h7-5-7---7---------5-|
a|----------------------------------------7-7-5h7---|
e|--------------------------------------------------|
							X5
e|--------------------------------------------------|
b|------------------------5-------------------------|
g|----------5-------------------------7-------------|
d|--5h7-5-7----7--7-7-5h7---7-5h7-5-7---7---------5-|
a|----------------------------------------5h7-5-7---|
e|--------------------------------------------------|

Guitar 1
	after solo has been played X3 then start strumming
e|-----------------------------------------|
b|-----------------------------------------|
g|-----------44444---22222---44444---------| X2
d|---77777---55555---22222---55555---------|
a|---77777---55555---22222---55555---------|
e|---55555---33333---00000---33333---------|

OUTRO

Jerry does this differently when he plays live, so play to fade, strum out
or improvise something.


SONG ORDER

intro
verse
pre-chorus 1
chorus
verse
pre-chorus 2
chorus
bridge
prepchorus 3
chorus
presolo
solo
outro
            
Submit corrections

comments powered by Disqus
↑ Back to top | Papa Roach Tabs for Tight Rope. Lyrics for acoustic guitar and electric guitar. Tablatures and chords are parodies/interpretations of the original songs. You may use it for private study, scholarship, research or language learning purposes only