» » »

Papa Roach, Tight Rope Tabs (ver.4)

Artists:  A B C D E F G H I J K L M N O P Q R S T U V W X Y Z # 

Tight Rope Tabs (ver.4)

Papa Roach Tabs
 Rating:
4/5 (4 votes)
Tight Rope lessons Tabs too difficult? Try these video lessons and learn fast
                15/08/01 Updated: 11/12/03
Tuning: Standard (E, A, D, G, B, E)
 
 Unless you have read the other entry or found it yourself you may not know about
this song.   About a minute after ‘Thrown Away’ has finished at 5 mins, this song
starts. It is a great song, one of the best  on the album in my opinion.  This is
my first proper tab, so if it isn’t perfect,just let me know and I’ll see  what I
can do. I think that it is quite accurate. It may sound different on an electric
with the effects on as I tabbedthis on an acoustic.  Enjoy and let meknow what
you think.
 
Intro (and verse) Distortion and Delay
 
|--8-----------7-----------10----------10-----------------------|
|--10----------8-----------12----------12-----------------------|
|--9-----------7-----------12----------12-----------------------|
|---------------------------------------------------------------|
|---------------------------------------------------------------|
|---------------------------------------------------------------|
 
Chorus
 
|-----8--------7-------3-------3------8--------7-------10------10-|
|-----10-------8-------5-------5------10-------8-------12------12-|
|-----9--------7-------4-------4-------9-------7-------12------12-|
|--7-------5--------0-------0-------7--------2-------3--------3---|
|--7-------5--------2-------2-------7--------2-------3--------3---|
|--5-------3--------2-------2-------5--------0-------1--------1---|
 
Solo at end of song
 
|--------------------------------------------------|
|--------------------------------------------------|
|--------------------------------------------------|
|--------------------------------------------------|
|--------------------------------------------------|
|---3b5------3b5------3b5---0---0---3---3---|  Repeat x 10 until fade 
 
Lyrics  
 
Here are all the lyrics to this song.  They are correct!!!
 
Verse:
 
My words are weapons,
In which, I murder you with,
Please don’t be scared,
Please don’t turn your head.
 
We are the future,
The 21st century,
Dyslectic, glue sniffing,
Cybersl*ts,
With homicidal minds,
And hand guns.
 
We are insane,
Nothing will change,
We are the same,
Nothing will change.
 
Chorus:
 
There is nothing like between,
What is good and what is evil,
And I will tiptoe down the line,
But I will feel unstable.
My life is a circus,
And I am tripping down that tight rope,
When there is nothing to save me now,
So I will not look down.
 
And again, and again,
And again, it happens again,
And again, and again,
And again and again.
 
Verse:
 
There is no beginning,
There is no end,
There is only change.
 
Progression backwards,
Is this where we are heading,
Take back your soul,
Forget your emptiness,
 
Chorus:
 
There is nothing like between,
What is good and what is evil,
And I will tiptoe down the line,
But I will feel unstable.
My life is a circus,
And I am tripping down that tight rope,
When there is nothing to save me now,
I’m falling to the ground.
 
Falling to the ground,
Down to the ground.
 
Bridge:
 
I speak of madness,
My heart and soul,
I cry for people who ain’t got control,
Lets take our sanity,
Lets take our passion,
And be responsible for every action.
 
Hell no, no how,
No way, no way
No way, no how.
No way, no how.
 
Chorus:
 
There is nothing like between,
What is good and what is evil,
And I will tiptoe down the line,
But I will feel unstable.
My life is a circus,
And I am tripping down that tight rope,
When there is nothing to save me now,
So I will not look down.
 
Chorus:
 
There is nothing like between,
What is good and what is evil,
And I will tiptoe down the line,
But I will feel unstable.
My life is a circus,
And I am tripping down that tight rope,
When there is nothing to save me now,
I’m falling to the ground.
 
Down to the ground,
All the way down,
Hit the ground.
 
That’s it. Enjoy.
            
Submit corrections

comments powered by Disqus
↑ Back to top | Papa Roach Tabs for Tight Rope. Lyrics for acoustic guitar and electric guitar. Tablatures and chords are parodies/interpretations of the original songs. You may use it for private study, scholarship, research or language learning purposes only