>
 >
Thrown Away 5-Strings

Thrown Away 5-Strings Bass Tabs

Papa Roach - Thrown Away 5-Strings chords, tabs, tablatures, lyrics

Guitar lessons | Add/correct | Request | Top 50 tabs Artists:  A B C D E F G H I J K L M N O P Q R S T U V W X Y Z 0-9

Thrown Away 5-Strings Bass Tabs – Papa Roach

CD, Sheet music, Poster

Do you like Thrown Away 5-Strings? Share with your friends now
Bass Tabs
tunig: (5-string bass) B E A D G

Intro
G -------------------------------|
D -------------------------------| 4x
A -------------------------------|
E -------------------------------|
B -55-5-555-53--66-6-666-63------|

verse
G --------------------------|
D --------------------------|
A --------------------------| 6x
E --------------------------|
B --5-5-5-53--6-6-6-63------|

chorus
G --------------------------------------------|
D --------------------------------------------|
A --------------------------------------------|
E -77777777-888888888/1010\77777777744444444--|
B --------------------------------------------|

verse 6x
chorus 2x
verse 6x 
Intro 4x  (heavy Part)
verse 5x 
chorus 2x

Outro 1
G --------------------------------------|
D --------------------------------------|
A -88888888------------------6-6-6-66---|
E ---------88888888-66666666------------|
B --------------------------------------|

outro 2
G --------------------------------------|
D --------------------------------------|
A -88888888-------------------66666666--| 2x
E ---------88888888-6-6-6-666-----------|
B --------------------------------------|

end
G ------------------------------------------|
D ------------------------------------------|
A -8-8-8-88--8-8-8-88----------8-8-8-8888-8-|
E --------------------8-8-8-88--------------|
B ------------------------------------------|

After The end you'll get a crazy sound and then the reagge part starts.
I'am not sure if it`s a bass it could also be a keybord but i believe it`s a bass.

I still working on it but here's a begin.

Intro Drums and guitar

bass strats at 5:11

verse
G --A---|--------------------------------|
D ------|--------------------------------|
A ------|--------------------------------| 4x
E ---12-|----------1212-12------1010--10-|
B -10---|-1010-1010----8---88-8-----10---|

A: play only the first time as an intro to the riff.

Bridge
G --------------------------------|
D --------------------------------|
A --------------------------------|
E -----------1212----1212-151412--|
B -1010--88--------10-------------|

Pre Chorus
G ----------------------------------|
D ----------------------------------|
A ----------------------------------|
E -------1212---1212---1212-12-1210-|
B -101010-----10-----10-------------|

Chorus
G -------------------------------------------------|
D -------------------------------------------------|
A -------------------------------------------------|
E -----10r--12--1212-151412-------10r--12--1212-12-|
B --8r-------------------------10r-----------------|





Comments


Popular Papa Roach tabs & chords
Live This Down Bass Tabs
Broken Home 3 Tabs
Done With You 2 Tabs
Hedake Tabs
I Almost Told You That I Loved You Intro Tabs
Not That Beautiful Tabs
She Loves Me Not 4 Tabs
Snakes Tabs
Tyranny Of Normality 1 Tabs
Walking Thru Barbed Wire Tabs


Song lyrics



↑ Back to top | Tablatures and chords are parodies/interpretations of the original songs. You may use it for private study, scholarship, research or language learning purposes only
© 2014 AZChords.com Contact us | Privacy policy | DMCA | Add/correct tabs | Request tabs | Top 50 tabs