>
 >
The Enemy

The Enemy Guitar Tabs

Papa Roach - The Enemy chords, tabs, tablatures, lyrics

Guitar lessons | Add/correct | Request | Top 50 tabs Artists:  A B C D E F G H I J K L M N O P Q R S T U V W X Y Z 0-9

The Enemy Guitar Tabs – Papa Roach

CD, Sheet music, Poster

Do you like The Enemy? Share with your friends now
TabsTabs v2
-------------------------------------------------------------------------------
                             Enemy - Papa Roach
-------------------------------------------------------------------------------


Tuning: Drop D flat or Drop C sharp (they're the same)

Also, because of my play-style, I like to scratch the strings with
the beat (and in general), so there may be some extra scratches that

So here goes, hope you like it!

Intro: play twice

eb|------------------------------------------------------------|
Bb|-o----------------------------------------------------------|
Gb|------------------------------------------------------------|
Db|---4--4--7-7-7-7-------------4~-4--7-7-7-7------------------|
Ab|-o-4--4----------7-7-7-4-4-4-4~-4----------7-7-7-9-9-9-\\\\-|
Db|---4--4----------------------4~-4---------------------------|


eb|------------------------------------------------------------|
Bb|----------------------------------------------------------o-|
Gb|------------------------------------------------------------|
Db|---4--4-7-7-7-7-------------x-7~-7-x-x-x-2~-2-x-x-x-x-------|
Ab|---4--4---------7-7-7-4-4-4-x-7~-7-x-x-x-2~-2-x-x-x-x-----o-|
Db|---4--4---------------------x-7~-7-x-x-x-2~-2-x-x-x-x-------|


Verse: play once
 
eb|--------------------------------------------------------------------|
Bb|--------------------------------------------------------------------|
Gb|--------------------------------------------------------------------|
Db|--4--4---------x-4~-4---------4--4---------x-7~-7--x--x-2~-2--x--x--|
Ab|--4--4---------x-4~-4---------4--4---------x-7~-7--x--x-2~-2--x--x--|
Db|--4--4---------x-4~-4---------4--4---------x-7~-7--x--x-2~-2--x--x--|


eb|--------------------------------------------------------------------|
Bb|--------------------------------------------------------------------|
Gb|--------------------------------------------------------------------|
Db|--0--0---------2--0~-0--------2~-4--4------x-7~-7--x--x-2~-2--------|
Ab|--0--0---------2--0~-0--------2~-4--4------x-7~-7--x--x-2~-2-/////--|
Db|--0--0---------2--0~-0--------2~-4--4------x-7~-7--x--x-2~-2--------|


Pre-Chorus: play once

eb|---------------------------------------------------------------|
Bb|--8-8-8-8-8-8-8-8-8-8-8-8-8-8-8-8-8-8-8-8-8-8-8-8--------------|
Gb|--7-7-7-7-7-7-7-7-7-7-7-7-7-7-7-7-7-7-7-7-7-7-7-7-6-6-6-6-6-6--|
Db|--x-x-x-x-x-x-x-x-x-x-x-x-x-x-x-x-x-x-x-x-x-x-x-x-x-x-x-x-x-x--|
Ab|--5-5-5-5-5-5-5-5-5-5-5-5-5-5-5-5-5-5-5-5-5-5-5-5-4-4-4-4-4-4--|
Db|---------------------------------------------------------------|

not sure about the extra note (Bb 8); might just be that Gb| 7 octave
                                                         Db| x  
Chorus: play once                                        Ab| 5

eb|---------------------------------------------------------------------|
Bb|---------------------------------------------------------------------|
Gb|---------------------------------------------------------------------|
Db|---4--4--x-4--x-4--4--x-4--x-7--7--x-7--x-7--7--x-7------------------|
Ab|---4--4--x-4--x-4--4--x-4--x-7--7--x-7--x-7--7--x-7------------------|
Db|---4--4--x-4--x-4--4--x-4--x-7--7--x-7--x-7--7--x-7------------------|


eb|---------------------------------------------------------------------|
Bb|---3--3----3----3--3----3--------------------------------------------|
Gb|---2--2----2----2--2----2--------------------------------------------|
Db|-x-0--0--x-0--x-0--0--x-0--x-2--2--x-2--x-2--2--x-2--//////////////--|
Ab|-x-0--0--x-0--x-0--0--x-0--x-2--2--x-2--x-2--2--x-2--//////////////--|
Db|-x-0--0--x-0--x-0--0--x-0--x-2--2--x-2--x-2--2--x-2--//////////////--|

again, not sure about that second note, but it sounds pretty close to me

Post-Chorus: play once

eb|---------------------------------------------------------------------|
Bb|---------------------------------------------------------------------|
Gb|--11111111111111111111111111111111-----------------------------------|
Db|--9-9-9-9-9-9-9-9-9-9-9-9-9-9-9-9-7-7-7-7-7-7-7-7-6~------2~---------|
Ab|--9-9-9-9-9-9-9-9-9-9-9-9-9-9-9-9-7-7-7-7-7-7-7-7-6~------2~---------|
Db|--9-9-9-9-9-9-9-9-9-9-9-9-9-9-9-9-7-7-7-7-7-7-7-7-6~------2~---------|

those are elevens, not ones; not sure about the elevens though 

there might be some king of rhythm on the 9's or that extra note 
to make it a Db| 9 and a Gb| 11 octave
             Ab| x       Db| x 
             Db| 9       Ab| 9

play Intro once

play Verse once

play Pre-Chorus once

play Chorus twice

Post Chorus 2:

eb|---------------------------------------------------------------------|
Bb|---------------------------------------------------------------------|
Gb|--11111111111111111111111111111111-----------------------------------|
Db|--9-9-9-9-9-9-9-9-9-9-9-9-9-9-9-9-7-7-7-7-7-7-7-7-7-7-7-7-7-7-7-7----|
Ab|--9-9-9-9-9-9-9-9-9-9-9-9-9-9-9-9-7-7-7-7-7-7-7-7-7-7-7-7-7-7-7-7----|
Db|--9-9-9-9-9-9-9-9-9-9-9-9-9-9-9-9-7-7-7-7-7-7-7-7-7-7-7-7-7-7-7-7----|


eb|---------------------------------------------------------------------|
Bb|---------------------------------------------------------------------|
Gb|--11111111111111111111111111111111-----------------------------------|
Db|--9-9-9-9-9-9-9-9-9-9-9-9-9-9-9-9-7-7-7-7-7-7-7-7-6~--------2~-------|
Ab|--9-9-9-9-9-9-9-9-9-9-9-9-9-9-9-9-7-7-7-7-7-7-7-7-6~--------2~-------|
Db|--9-9-9-9-9-9-9-9-9-9-9-9-9-9-9-9-7-7-7-7-7-7-7-7-6~--------2~-------|

again, not sure about the elevens

Solo/Bridge: repeat as many times as necessary (sounds to me like 8 times)

eb|-------------------------------------|
Bb|-o---------------------------------o-|
Gb|-------------------------------------|
Db|---4-4-4-4-7-7-7-7-2-2-2-2-4-4-4-4---|
Ab|-o---------------------------------o-|
Db|-------------------------------------|


play Chorus twice

play Post-Chorus 2

that last bit sounds like it might be...

eb|----------|
Bb|-----3~---|
Gb|-----2~---|
Db|--0--0~---|
Ab|--0--0~---|
Db|--0-------|

...but I'm not sure

A bit of a Legend:

~: hold the note longer (listen to the song: you'll hear)
/: slide up on the neck
\: slide down





Comments


Popular Papa Roach tabs & chords
Born With Nothing Die With Every 1 Bass Tabs
Not Listening 3 Bass Tabs
She Loves Me Not Drum Tabs
Between Angels And Insects 6 Tabs
Blood Brothers 5 Tabs
Roses On My Grave Tabs
Snakes 1 Tabs
Stop Looking Start Seeing Tabs
What Do You Do Tabs
No Matter What Ukulele


Song lyrics



↑ Back to top | Tablatures and chords are parodies/interpretations of the original songs. You may use it for private study, scholarship, research or language learning purposes only
© 2014 AZChords.com Contact us | Privacy policy | DMCA | Add/correct tabs | Request tabs | Top 50 tabs