>
 >
Take Me 4

Take Me 4 Guitar Tabs

Papa Roach - Take Me 4 chords, tabs, tablatures, lyrics

Guitar lessons | Add/correct | Request | Top 50 tabs Artists:  A B C D E F G H I J K L M N O P Q R S T U V W X Y Z 0-9

Take Me 4 Guitar Tabs – Papa Roach

CD, Sheet music, Poster

Do you like Take Me 4? Share with your friends now
Bass TabsDrum TabsTabsTabs v2Tabs v3Tabs v4Tabs v5Tabs v6Tabs v7
Band: Papa Roach

 /- slide up
 \ - slide down
 h - hammer-on
 p - pull-off
 ~ - vibrato
 + - harmonic
 x - mute note
 P.M - palm mute


Drop D (D A D G B E)


Chorus: 
|-----------------------------------------------|
|-----------------------------------------------|
|--6-6-(6)xx--2-2-(2)xx--7-7-(7)xx--------------| 
|--6-6-(6)xx--2-2-(2)xx--7-7-(7)xx--4-4-(4)xx---|
|--4-4-(4)xx--0-0-(0)xx--5-5-(5)xx--4-4-(4)xx---|
|-----------------------------------4-4-(4)xx---|x2

Verse: 
|-----------------------------------|
|-----------------------------------|
|-----------------------------------|
|-------6-6-6-----4-4-------------2-|
|-4-4-4-------7-7-----2-2-2-2-2-2-2-|
|---------------------------------2-|
 [---------P.M-------------------]


|-----------------------------------|
|-----------------------------------|
|-----------------------------------|
|-------7-7-7-----6-6-------------7-|
|-4-4-4-------7-7-----7-7-7-7-7-7-7-|
|---------------------------------7-|
 [---------P.M-------------------]

|-----------------------------------|
|-----------------------------------|
|-----------------------------------|
|-------6-6-6-----4-4-------------2-|
|-4-4-4-------7-7-----2-2-2-2-2-2-2-|
|---------------------------------2-|
 [---------P.M-------------------]

|----------------------------------|
|----------------------------------|
|----------------------------------|
|-------7-7-7-----6-6--------------|
|-4-4-4-------7-7-----7-7-7-7-7-7--|
|----------------------------------|
 [-P.M-]


|------------|
|------------|
|-2----4-----|
|-2----4-----|
|-0----2-----|
|------------|
This is just a story of a broken soul...


Pre-Chorus:
|------------------------------------------|
|------------------------------------------|
|------------------------------------------|
|-11--11-11--9-7--7-xx--2--xx--7-7--9--xx--|
|-11--11-11--9-7--7-xx--2--xx--7-7--9--xx--|
|-11--11-11--9-7--7-xx--2--xx--7-7--9--xx--|x2
As days go by, my heart grows cold...


Chorus: 
|-----------------------------------------------|
|-----------------------------------------------|
|--6-6-(6)xx--2-2-(2)xx--7-7-(7)xx--------------| 
|--6-6-(6)xx--2-2-(2)xx--7-7-(7)xx--4-4-(4)xx---|
|--4-4-(4)xx--0-0-(0)xx--5-5-(5)xx--4-4-(4)xx---|
|-----------------------------------4-4-(4)xx---|x2

Verse: 
|-----------------------------------|
|-----------------------------------|
|-----------------------------------|
|-------6-6-6-----4-4-------------2-|
|-4-4-4-------7-7-----2-2-2-2-2-2-2-|
|---------------------------------2-|
 [---------P.M-------------------]


|-----------------------------------|
|-----------------------------------|
|-----------------------------------|
|-------7-7-7-----6-6-------------7-|
|-4-4-4-------7-7-----7-7-7-7-7-7-7-|
|---------------------------------7-|
 [---------P.M-------------------]

|-----------------------------------|
|-----------------------------------|
|-----------------------------------|
|-------6-6-6-----4-4-------------2-|
|-4-4-4-------7-7-----2-2-2-2-2-2-2-|
|---------------------------------2-|
 [---------P.M-------------------]

|----------------------------------|
|----------------------------------|
|----------------------------------|
|-------7-7-7-----6-6--------------|
|-4-4-4-------7-7-----7-7-7-7-7-7--|
|----------------------------------|
 [-P.M-]

|------------|
|------------|
|-2----4-----|
|-2----4-----|
|-0----2-----|
|------------|
This is just a story of a broken soul...

Pre-Chorus:
|------------------------------------------|
|------------------------------------------|
|------------------------------------------|
|-11--11-11--9-7--7-xx--2--xx--7-7--9--xx--|
|-11--11-11--9-7--7-xx--2--xx--7-7--9--xx--|
|-11--11-11--9-7--7-xx--2--xx--7-7--9--xx--|x2
As days go by, my heart grows cold...

Chorus: 
|-----------------------------------------------|
|-----------------------------------------------|
|--6-6-(6)xx--2-2-(2)xx--7-7-(7)xx--------------| 
|--6-6-(6)xx--2-2-(2)xx--7-7-(7)xx--4-4-(4)xx---|
|--4-4-(4)xx--0-0-(0)xx--5-5-(5)xx--4-4-(4)xx---|
|-----------------------------------4-4-(4)xx---|x2

Bridge:
|------------------------|
|------------------------|
|6-----xxxx6-6--2--------|
|6-----xxxx6-6--2-4-6----|
|4-----xxxx4-4--0-4-6----|
|-----------------4-6----|

|-----------------------------------------------|
|-----------------------------------------------|
|--6-6-(6)xx--2-2-(2)xx--7-7-(7)xx--------------|
|--6-6-(6)xx--2-2-(2)xx--7-7-(7)xx--4-4-(4)xx---|
|--4-4-(4)xx--0-0-(0)xx--5-5-(5)xx--4-4-(4)xx---|
|-----------------------------------4-4-(2)xx---|x2
[--------------------P.M--------------------]
Does anyone around me feel the same? Put your fist up and vent your pain! 

Solo:
|--------------------------------------------------------------------------|
|--------------------------------------------------------------------------|
|-6-------------6----------------------------------------------------------|
|-6-------------6------------------7----------------9----------------------|
|-4-2/46-/777/6-4-2/46-/111111/999-7-2/46-777/666/7-9-2/46-/121212/111111--|
|---2/46----------2/46-------------7-2/46-777/666/7-9-2/46-----------------|
           (they are 11's)
Does anyone around me feel the same? Put your fist up and vent your pain!


Outro: 
|-----------------------------------------------|
|-----------------------------------------------|
|--6-6-(6)xx--2-2-(2)xx--7-7-(7)xx--------------| 
|--6-6-(6)xx--2-2-(2)xx--7-7-(7)xx--4-4-(4)xx---|
|--4-4-(4)xx--0-0-(0)xx--5-5-(5)xx--4-4-(4)xx---|
|-----------------------------------4-4-(4)xx---|x6





Comments


Popular Papa Roach tabs & chords
829 1 Bass Tabs
Getting Away With Murder 3 Bass Tabs
July 1 Bass Tabs
Not Listening 3 Bass Tabs
Decompression Period- Tabs
Hollywood Whore Intro Tabs
Infest 2 Tabs
Lifeline 1 Tabs
No Matter What 2 Tabs
One Track Mind Tabs


Song lyrics



↑ Back to top | Tablatures and chords are parodies/interpretations of the original songs. You may use it for private study, scholarship, research or language learning purposes only
© 2014 AZChords.com Contact us | Privacy policy | DMCA | Add/correct tabs | Request tabs | Top 50 tabs