>
 >
Still Swingin

Still Swingin Bass Tabs

Papa Roach - Still Swingin chords, tabs, tablatures, lyrics

Guitar lessons | Add/correct | Request | Top 50 tabs Artists:  A B C D E F G H I J K L M N O P Q R S T U V W X Y Z 0-9

Still Swingin Bass Tabs – Papa Roach

CD, Sheet music, Poster

Do you like Still Swingin? Share with your friends now
Bass TabsTabs
Still Swingin' - Papa Roach
Hey Papa Roach Fans! This is my bass tab to the song Still Swingin', which will be 
released on the new record called 'The Connection' at 3rd October.
This tab has a 4-string and a 5-string version of this song, the tuning is C#.
Note: I would use the fingers because of the small slapping-part at 0:28.

Have fun and don't forget to rate!


4-String Version:

Intro
Gb|----------------|----------------|----------------|----------------|
Db|----------------|-----------3----|----------------|----------------|
Ab|--------5--3--5-|---------35-5~~~|--------5--3--5-|----------------|
Db|0~~~0~~~--------|0~~~0~~~5-------|0~~~0~~~--------|3-3-3-3-2-2-2-2-|
   Q   Q   E. E. E  Q   Q   SSSSQ    Q   Q   E. E. E  E E E E E E E E

Gb|----------------|----------------|----------------|----------------|
Db|----------------|-----------3----|----------------|----------------|
Ab|--------5--3--5-|---------35-5~~~|--------5--3--5-|----------------|
Db|0~~~0~~~--------|0~~~0~~~5-------|0~~~0~~~--------|1-1-1-1-0-0-0-0-|
   Q   Q   E. E. E  Q   Q   SSSSQ    Q   Q   E. E. E  E E E E E E E E

Verse 1
Gb|----------------|----------------|----------------|----------------|
Db|----------------|-----------3----|----------------|----3-------2---|
Ab|----------------|---------35-5~~~|----------------|----------------|
Db|0~~~0~~~--------|0~~~0~~~5-------|0~~~0~~~--------|3-3---3-2-2---2-|
   Q   Q   H        Q   Q   SSSSQ    Q   Q   H        E E E E E E E E

Gb|----------------|----------------|----------------|--------SLAPPING|
Db|----------------|-----------3----|----------------|----1------0-0--|
Ab|----------------|---------35-5~~~|----------------|----------------|
Db|0~~~0~~~--------|0~~~0~~~5-------|0~~~0~~~--------|1-1---1-0-0-0---|
   Q   Q   H        Q   Q   SSSSQ    Q   Q   H        E E E E E SSSE.

Pre-Chorus 1
Gb|----------------|----------------|----------------|----------------|
Db|----------------|-----------3----|----------------|----3-------2---|
Ab|----------------|---------35-5~~~|----------------|----------------|
Db|0~~~0~~~--------|0~~~0~~~5-------|0~~~0~~~--------|3-3---3-2-2---2-|
   Q   Q   H        Q   Q   SSSSQ    Q   Q   H        E E E E E E E E

Gb|----------------|----------------|----------------|----------------|
Db|----------------|-----------3----|----------------|----------------|
Ab|----------------|---------35-5~~~|----------------|----------------|
Db|0~~~0~~~--------|0~~~0~~~5-------|0~~~0~~~--------|12//0-----------|
   Q   Q   E. E. E  Q   Q   SSSSQ    Q   Q   E. E. E  Q   E E H

Chorus
Gb|----------------|----------------|----------------|----------------|
Db|----------------|----------------|----------------|----------------|
Ab|8-8-8-8-8-8-8-8-|8-8-8-8-8-8-8-8-|5-5-5-5-5-5-5-5-|5-5-5-5-5-5-5-5-|
Db|----------------|----------------|----------------|----------------|
   E E E E E E E E  E E E E E E E E  E E E E E E E E  E E E E E E E E

Gb|----------------|----------------|----------------|----------------|
Db|----------------|----------------|----------------|----------------|
Ab|----------------|----------------|----------------|----------------|
Db|8-8-8-8-8-8-8-8-|8-8-8-8-8-8-8-8-|1010101010101010|10101010X--X--X-|
   E E E E E E E E  E E E E E E E E  E E E E E E E E  E E E E E. E. E

Gb|----------------|----------------|----------------|----------------|
Db|----------------|----------------|----------------|----------------|
Ab|8-8-8-8-8-8-8-8-|8-8-8-8-8-8-8-8-|5-5-5-5-5-5-5-5-|5-5-5-5-5-5-5-5-|
Db|----------------|----------------|----------------|----------------|
   E E E E E E E E  E E E E E E E E  E E E E E E E E  E E E E E E E E

Gb|----------------|----------------|----------------|----------------|
Db|----------------|----------------|----------------|----------------|
Ab|----------------|----------------|----------------|----------------|
Db|8-8-8-8-8-8-8-8-|8-8-8-8-8-8-8-8-|1010101010101010|10//0-----------|
   E E E E E E E E  E E E E E E E E  E E E E E E E E  Q   E E H

Fill
Gb|----------------|----------------|----------------|----------------|
Db|----------------|-----------3----|----------------|----1-------0---|
Ab|--------5--3--5-|---------35-5~~~|--------5--3--5-|----------------|
Db|0~~~0~~~--------|0~~~0~~~5-------|0~~~0~~~--------|1-1---1-0-0---0-|
   Q   Q   E. E. E  Q   Q   SSSSQ    Q   Q   E. E. E  E E E E E E E E

Verse 2 (first four bars pause, then:)
Gb|----------------|----------------|----------------|----------------|
Db|----------------|-----------3----|----------------|----------------|
Ab|----------------|---------35-5~~~|----------------|----------------|
Db|0~~~0~~~--------|0~~~0~~~5-------|0~~~0~~~--------|----------------|
   Q   Q   E. E. E  Q   Q   SSSSQ    Q   Q   E. E. E  W

Pre-Chorus 2
Gb|----------------|----------------|----------------|----------------|
Db|----------------|-----------3----|----------------|----3-------2---|
Ab|--------5--3--5-|---------35-5~~~|--------5--3--5-|----------------|
Db|0~~~0~~~--------|0~~~0~~~5-------|0~~~0~~~--------|3-3---3-2-2---2-|
   Q   Q   E. E. E  Q   Q   SSSSQ    Q   Q   E. E. E  E E E E E E E E

Gb|----------------|----------------|----------------|----------------|
Db|----------------|-----------3----|----------------|----------------|
Ab|--------5--3--5-|---------35-5~~~|--------5--3--5-|----------------|
Db|0~~~0~~~--------|0~~~0~~~5-------|0~~~0~~~--------|12//0---0--X--X-|
   Q   Q   E. E. E  Q   Q   SSSSQ    Q   Q   E. E. E  Q   E E E. E. E

Chorus
Pause (2:13 - 2:33) (the electronic part)

Last Chorus
Gb|----------------|----------------|----------------|----------------|
Db|----------------|----------------|----------------|----------------|
Ab|8~~~~~~~~~~~~~~~|~~~~~~~~~~~~~~~~|5~~~~~~~~~~~~~~~|~~~~~~~~~~~~~~~~|
Db|----------------|----------------|----------------|----------------|
   W                W                W                W

Gb|----------------|----------------|----------------|----------------|
Db|----------------|----------------|----------------|----------------|
Ab|----------------|----------------|----------------|----------------|
Db|8-8-8-8-8-8-8-8-|8-8-8-8-8-8-8-8-|1010101010101010|10//0-----------|
   E E E E E E E E  E E E E E E E E  E E E E E E E E  Q   E E H

Gb|----------------|----------------|----------------|----------------|
Db|----------------|----------------|----------------|----------------|
Ab|8-8-8-8-8-8-8-8-|8-8-8-8-8-8-8-8-|5-5-5-5-5-5-5-5-|5-5-5-5-5-5-5-5-|
Db|----------------|----------------|----------------|----------------|
   E E E E E E E E  E E E E E E E E  E E E E E E E E  E E E E E E E E

Gb|----------------|----------------|----------------|----------------|
Db|----------------|----------------|----------------|----------------|
Ab|----------------|----------------|----------------|----------------|
Db|8-8-8-8-8-8-8-8-|8-8-8-8-8-8-8-8-|1010101010101010|10-10/0---------|
   E E E E E E E E  E E E E E E E E  E E E E E E E E  E. E. E H

Intro = Outro

End on
Gb|----------------|
Db|----------------|
Ab|----------------|
Db|12//0-----------|
   Q   E E H






5-String Version:

Intro
G|----------------|----------------|----------------|----------------|
D|----------------|-----------2----|----------------|----------------|
A|--------4--2--4-|---------24-4~~~|--------4--2--4-|----------------|
E|----------------|--------4-------|----------------|----------------|
B|2~~~2~~~--------|2~~~2~~~--------|2~~~2~~~--------|5-5-5-5-4-4-4-4-|
  Q   Q   E. E. E  Q   Q   SSSSQ    Q   Q   E. E. E  E E E E E E E E

G|----------------|----------------|----------------|----------------|
D|----------------|-----------2----|----------------|----------------|
A|--------4--2--4-|---------24-4~~~|--------4--2--4-|----------------|
E|----------------|--------4-------|----------------|----------------|
B|2~~~2~~~--------|2~~~2~~~--------|2~~~2~~~--------|3-3-3-3-2-2-2-2-|
  Q   Q   E. E. E  Q   Q   SSSSQ    Q   Q   E. E. E  E E E E E E E E

Verse 1
G|----------------|----------------|----------------|----------------|
D|----------------|-----------2----|----------------|----------------|
A|----------------|---------24-4~~~|----------------|----7-------6---|
E|----------------|--------4-------|----------------|----------------|
B|2~~~2~~~--------|2~~~2~~~--------|2~~~2~~~--------|5-5---5-4-4---4-|
  Q   Q   H        Q   Q   SSSSQ    Q   Q   H        E E E E E E E E

G|----------------|----------------|----------------|----------------|
D|----------------|-----------2----|----------------|--------SLAPPING|
A|----------------|---------24-4~~~|----------------|----5------4-4--|
E|----------------|--------4-------|----------------|----------------|
B|2~~~2~~~--------|2~~~2~~~--------|2~~~2~~~--------|3-3---3-2-2-2---|
  Q   Q   H        Q   Q   SSSSQ    Q   Q   H        E E E E E SSSE.

Pre-Chorus 1
G|----------------|----------------|----------------|----------------|
D|----------------|-----------2----|----------------|----------------|
A|----------------|---------24-4~~~|----------------|----7-------6---|
E|----------------|--------4-------|----------------|----------------|
B|2~~~2~~~--------|2~~~2~~~--------|2~~~2~~~--------|5-5---5-4-4---4-|
  Q   Q   H        Q   Q   SSSSQ    Q   Q   H        E E E E E E E E

G|----------------|----------------|----------------|----------------|
D|----------------|-----------2----|----------------|----------------|
A|----------------|---------24-4~~~|----------------|----------------|
E|----------------|--------4-------|----------------|----------------|
B|2~~~2~~~--------|2~~~2~~~--------|2~~~2~~~--------|14//2-----------|
  Q   Q   H        Q   Q   SSSSQ    Q   Q   H        Q   E E H

Chorus
G|----------------|----------------|----------------|----------------|
D|----------------|----------------|----------------|----------------|
A|7-7-7-7-7-7-7-7-|7-7-7-7-7-7-7-7-|4-4-4-4-4-4-4-4-|4-4-4-4-4-4-4-4-|
E|----------------|----------------|----------------|----------------|
B|----------------|----------------|----------------|----------------|
  E E E E E E E E  E E E E E E E E  E E E E E E E E  E E E E E E E E

G|----------------|----------------|----------------|----------------|
D|----------------|----------------|----------------|----------------|
A|----------------|----------------|----------------|----------------|
E|5-5-5-5-5-5-5-5-|5-5-5-5-5-5-5-5-|7-7-7-7-7-7-7-7-|7-7-7-7-X--X--X-|
B|----------------|----------------|----------------|----------------|
  E E E E E E E E  E E E E E E E E  E E E E E E E E  E E E E E. E. E

G|----------------|----------------|----------------|----------------|
D|----------------|----------------|----------------|----------------|
A|7-7-7-7-7-7-7-7-|7-7-7-7-7-7-7-7-|4-4-4-4-4-4-4-4-|4-4-4-4-4-4-4-4-|
E|----------------|----------------|----------------|----------------|
B|----------------|----------------|----------------|----------------|
  E E E E E E E E  E E E E E E E E  E E E E E E E E  E E E E E E E E

G|----------------|----------------|----------------|----------------|
D|----------------|----------------|----------------|----------------|
A|----------------|----------------|----------------|----------------|
E|5-5-5-5-5-5-5-5-|5-5-5-5-5-5-5-5-|7-7-7-7-7-7-7-7-|7///0-----------|
B|----------------|----------------|----------------|----------------|
  E E E E E E E E  E E E E E E E E  E E E E E E E E  Q   E E H

Fill
G|----------------|----------------|----------------|----------------|
D|----------------|-----------2----|----------------|----------------|
A|--------4--2--4-|---------24-4~~~|--------4--2--4-|----5-------4---|
E|----------------|--------4-------|----------------|----------------|
B|2~~~2~~~--------|2~~~2~~~--------|2~~~2~~~--------|3-3---3-2-2---2-|
  Q   Q   E. E. E  Q   Q   SSSSQ    Q   Q   E. E. E  E E E E E E E E

Verse 2 (first four bars pause, then:)
G|----------------|----------------|----------------|----------------|
D|----------------|-----------2----|----------------|----------------|
A|----------------|---------24-4~~~|----------------|----------------|
E|----------------|--------4-------|----------------|----------------|
B|2~~~2~~~--------|2~~~2~~~--------|2~~~2~~~--------|----------------|
  Q   Q   H        Q   Q   SSSSQ    Q   Q   H        W

Pre-Chorus 2
G|----------------|----------------|----------------|----------------|
D|----------------|-----------2----|----------------|----------------|
A|--------4--2--4-|---------24-4~~~|--------4--2--4-|----7-------6---|
E|----------------|--------4-------|----------------|----------------|
B|2~~~2~~~--------|2~~~2~~~--------|2~~~2~~~--------|5-5---5-4-4---4-|
  Q   Q   E. E. E  Q   Q   SSSSQ    Q   Q   E. E. E  E E E E E E E E

G|----------------|----------------|----------------|----------------|
D|----------------|-----------2----|----------------|----------------|
A|--------4--2--4-|---------24-4~~~|--------4--2--4-|----------------|
E|----------------|--------4-------|----------------|----------------|
B|2~~~2~~~--------|2~~~2~~~--------|2~~~2~~~--------|14//2---2--X--X-|
  Q   Q   E. E. E  Q   Q   SSSSQ    Q   Q   E. E. E  Q   E E E. E. E

Chorus
Pause (2:13 - 2:33) (the electronic part)

Last Chorus
G|----------------|----------------|----------------|----------------|
D|----------------|----------------|----------------|----------------|
A|7~~~~~~~~~~~~~~~|~~~~~~~~~~~~~~~~|4~~~~~~~~~~~~~~~|~~~~~~~~~~~~~~~~|
E|----------------|----------------|----------------|----------------|
B|----------------|----------------|----------------|----------------|
  W                W                W                W

G|----------------|----------------|----------------|----------------|
D|----------------|----------------|----------------|----------------|
A|----------------|----------------|----------------|----------------|
E|5-5-5-5-5-5-5-5-|5-5-5-5-5-5-5-5-|7-7-7-7-7-7-7-7-|7///0-----------|
B|----------------|----------------|----------------|----------------|
  E E E E E E E E  E E E E E E E E  E E E E E E E E  Q   E E H

G|----------------|----------------|----------------|----------------|
D|----------------|----------------|----------------|----------------|
A|7-7-7-7-7-7-7-7-|7-7-7-7-7-7-7-7-|4-4-4-4-4-4-4-4-|4-4-4-4-4-4-4-4-|
E|----------------|----------------|----------------|----------------|
B|----------------|----------------|----------------|----------------|
  E E E E E E E E  E E E E E E E E  E E E E E E E E  E E E E E E E E

G|----------------|----------------|----------------|----------------|
D|----------------|----------------|----------------|----------------|
A|----------------|----------------|----------------|----------------|
E|5-5-5-5-5-5-5-5-|5-5-5-5-5-5-5-5-|7-7-7-7-7-7-7-7-|7--7//0---------|
B|----------------|----------------|----------------|----------------|
  E E E E E E E E  E E E E E E E E  E E E E E E E E  E. E. E H

Intro = Outro

End on
G|----------------|
D|----------------|
A|----------------|
E|----------------|
B|14//2-----------|
  Q   E E H




W = Whole note
H = Half note
Q = Quarter note
E = Eighth note
S = Sixteenth note
. = makes the note a half longer
\ = Slide up
/ = Slide down
h = Hammer-on
p = Pull-off
b = Bending
X = Mute note





Comments


Popular Papa Roach tabs & chords
To Be Loved 4 Bass Tabs
Scars 8 Chords
Blood Brothers Tabs
Forever Accoustic Tabs
Last Resort Extensive Tabs
Life Is A Bullet (Intro Ver 3) Tabs
Never Said It 1 Tabs
State Of Emergency Tabs
Take Me 1 Tabs
What Do You Do Intro Tabs


Song lyrics



↑ Back to top | Tablatures and chords are parodies/interpretations of the original songs. You may use it for private study, scholarship, research or language learning purposes only
© 2014 AZChords.com Contact us | Privacy policy | DMCA | Add/correct tabs | Request tabs | Top 50 tabs