>
 >
Sos

Sos Guitar Tabs

Papa Roach - Sos chords, tabs, tablatures, lyrics

Guitar lessons | Add/correct | Request | Top 50 tabs Artists:  A B C D E F G H I J K L M N O P Q R S T U V W X Y Z 0-9

Sos Guitar Tabs – Papa Roach

CD, Sheet music, Poster

Do you like Sos? Share with your friends now
Bass TabsTabs
PaPa RoACh 
SOS
Drop D Tuning 

intro 
e|--------------------------|------------|-----------|-------
b|--------------------------|------------|-----------|-------
g|5-------------------3-4-3-|------------|--5---3-4-3|-------
d|5-(hold the chords)-------|-6----3-4-3-|--5--------|-1--5--
a|3-------------------------|-6----------|--3--------|-1--3--
d|--------------------------|-6----------|-----------|-1--5--

Verse
e|-----------------------|------------------------------------
b|-----------------------|------------------------------------
g|5----------------------|------------------------------------
d|5-5-5-5-5-5-5-5-5-3-4-3|--6-----------------3-4-3----------
a|3-3-3-3-3-3-3-3-3------|--6-6-6-6-6-6-6-6-6-----------------
d|-----------------------|--6-6-6-6-6-6-6-6-6-----------------
    P.M...........            P.M............
Verse Cont.
e|------------------------|-----------------------------------
b|------------------------|-----------------------------------
g|5-----------------------|-----------------------------------
d|5-5-5-5-5-5-5-5-5-3-4-3-|-1-------5-------------------------
a|3-3-3-3-3-3-3-3-3-------|-1-------3-------------------------
d|------------------------|-1-------5-------------------------
    p.m............ for most verses you play it twice

Pre Chorus 
e|-------------------|----------------------------------------
b|-------------------|----------------------------------------
g|-------------------|----------------------------------------
d|-6---------------6-|-3---------5-5-5-5---------------------
a|-6-6-6-6-6-6-6-6-6-|-3-3-3-3-3-5-5-5-5----------------------
d|-6-6-6-6-6-6-6-6-6-|-3-3-3-3-3-5-5-5-5----------------------
.     P.M........        p.m....

chorus 
e|----------------|----------------|----------------|------------------
b|----------------\----------------|----------------|------------------
g|----------------|----------------|----------------|5-5-5-5-3-3-3-3---
d|-6-6-6-6-6-6-6-6|-1-1-1-1-1-1-1-1\-5-5-5-5-5-5-5-5|5-5-5-5-3-3-3-3---
a|-6-6-6-6-6-6-6-6|-1-1-1-1-1-1-1-1|-5-5-5-5-5-5-5-5|3-3-3-3-1-1-1-1---
d|-6-6-6-6-6-6-6-6|-1-1-1-1-1-1-1-1|-5-5-5-5-5-5-5-5|------------------
                                                   e|------------------
                                                   b|------------------
 just hold the g power chord (the 5s)              g|------------------
 on the second time of the chorus                  d|5-5-5-5-5-5-5-5-5-
                                                   a|5-5-5-5-5-5-5-5-5-
                                                   d|5-5-5-5-5-5-5-5-5-

verse 
chorus
bride riff
e|---------------------------------|---------------------------
b|---------------------------------\---------------------------
g|---------------------------------|---------------------------
d|5--------------------------3-4-3-|---------------------------
a|3-3-3-3-3-3-3-3-3-3-3~--3-3------|-play this 4 times --------
d|5---5-5---5-5---5-5-----5-5------|---------------------------
      p.m.  ..    ..      ..
play chorus x2 
play bridge riff as an outro 





Comments


Popular Papa Roach tabs & chords
Broken Home Bass Tabs
Life Is A Bullet Bass Tabs
Lovehatetragedy Bass Tabs
Scars 5 Bass Tabs
Last Resort 1 Chords
Scars 2 Chords
Coffee Thoughts Tabs
Give Me Back My Life 1 Tabs
Harder Than A Coffin Nail Tabs
I Devise My Own Demise Tabs


Song lyrics



↑ Back to top | Tablatures and chords are parodies/interpretations of the original songs. You may use it for private study, scholarship, research or language learning purposes only
© 2014 AZChords.com Contact us | Privacy policy | DMCA | Add/correct tabs | Request tabs | Top 50 tabs