» » »

Papa Roach, She Loves Me Not Tabs (ver.9)

Artists:  A B C D E F G H I J K L M N O P Q R S T U V W X Y Z # 

She Loves Me Not Tabs (ver.9)

Papa Roach Tabs
Rating:
0/5 (0 votes)
She Loves Me Not lessons Tabs too difficult? Try these video lessons and learn fast
                #------------------------------------------------------------------------------##

                                SHE LOVES ME NOT
                            As recorded by Papa Roach
                      (From the 2002 Album LOVEHATETRAGEDY)

Words and Music by Papa Roach


Gtr I (C G C F A D) - 'Untitled'
Gtr II (C G C F A D) - 'Untitled'
Gtr III (C G C F A D) - 'Untitled'

       Verse
  Moderate Rock Q=120
    $
  B5                       G5
 4/4
  Gtr I
  S     +E  E Q  Q  E. S   E E Q  Q  E. S
|---||-------------------|----------------|
|---||o------------------|----------------|
|---||-------------------|----------------|
|-9-||--(9)-9----------x-|-5-5----------x-|
|-9-||o-(9)-9----------x-|-5-5----------x-|
|-9-||--(9)-9----------x-|-5-5----------x-|


  E5               F#5                     B5
  E E Q  Q  E. S   E E S S S S +E  E S S S S
|----------------|---------------------------|
|----------------|---------------------------|
|----------------|---------------------------|
|-2-2----------x-|-4-4-x-x-x-4-(4)-4-x-x-x-9-|
|-2-2----------x-|-4-4-x-x-x-4-(4)-4-x-x-x-9-|
|-2-2----------x-|-4-4-x-x-x-4-(4)-4-x-x-x-9-|


                     G5
  +E  E Q  Q  E. S   E E Q  Q  E. S
|------------------|----------------|
|------------------|----------------|
|------------------|----------------|
|-(9)-9----------x-|-5-5----------x-|
|-(9)-9----------x-|-5-5----------x-|
|-(9)-9----------x-|-5-5----------x-|


  E5               F#5       D5            B5
  E E Q  Q  E. S   E E S S S S +E  E S S S S
|----------------|---------------------------|
|----------------|---------------------------|
|----------------|---------------------------|
|-2-2----------x-|-4-4-x-x-x-0-(0)-0-x-x-x-9-|
|-2-2----------x-|-4-4-x-x-x-0-(0)-0-x-x-x-9-|
|-2-2----------x-|-4-4-x-x-x-0-(0)-0-x-x-x-9-|


                     G5
  +E  E Q  Q  E. S   E E Q  Q  E. S
|------------------|----------------|
|------------------|----------------|
|------------------|----------------|
|-(9)-9----------x-|-5-5----------x-|
|-(9)-9----------x-|-5-5----------x-|
|-(9)-9----------x-|-5-5----------x-|


  E5               F#5                     B5
  E E Q  Q  E. S   E E S S S S +E  E S S S S
|----------------|---------------------------||
|----------------|---------------------------||
|----------------|---------------------------||
|-2-2----------x-|-4-4-x-x-x-4-(4)-4-x-x-x-9-||
|-2-2----------x-|-4-4-x-x-x-4-(4)-4-x-x-x-9-||
|-2-2----------x-|-4-4-x-x-x-4-(4)-4-x-x-x-9-||


 Pre-Chorus
            F#    D          G5            F#    D          E5
                      PM|                            PM|
  +E  E S S  S  S S S S S E. S   +E  E S S  S  S S S S S E. S
|------------------------------|------------------------------|
|------------------------------|------------------------------|
|-----------11-11-7-7-----7\---|-----------11-11-7-7-----7\---|
|-(9)-9-x-x--x--x-x-x-----x--5-|-(5)-5-x-x--x--x-x-x-----x--2-|
|-(9)-9-x-x--9--9-5-5-5-5-5\-5-|-(5)-5-x-x--9--9-5-5-5-5-5\-2-|
|-(9)-9-x-x------------------5-|-(5)-5-x-x------------------2-|


            F#    D          F#5           F#    D
                      PM|                            PM|
  +E  E S S  S  S S S S S E. S   +E  E S S  S  S S S S S Q
|------------------------------|-----------------------------||
|------------------------------|-----------------------------||
|-----------11-11-7-7-----7\---|-----------11-11-7-7-----7\--||
|-(2)-2-x-x--x--x-x-x-----x--4-|-(4)-4-x-x--x--x-x-x-----x---||
|-(2)-2-x-x--9--9-5-5-5-5-5\-4-|-(4)-4-x-x--9--9-5-5-5-5-5\--||
|-(2)-2-x-x------------------4-|-(4)-4-x-x-------------------||


 Chorus
  G              Asus2
  E E Q  Q  Q    E E Q  Q  Q
|--------------|--------------|
|--------------|--------------|
|--------------|--------------|
|-9-9-9--9--9--|-9-9-9--9--9--|
|-5-5-5--9--5--|-7-7-7--7--7--|
|-5-5-5--5--5--|-7-7-7--7--7--|


  B5
  E E Q  Q  Q    E E Q  Q  Q
|--------------|--------------|
|--------------|--------------|
|--------------|--------------|
|-9-9-9--9--9--|-9-9-9--9--9--|
|-9-9-9--9--9--|-9-9-9--9--9--|
|-9-9-9--9--9--|-9-9-9--9--9--|


                                   To Coda
  G              Asus2          B5
  E E Q  Q  Q    E E Q  Q  Q    E E Q  Q  Q
|--------------|--------------|--------------|
|--------------|--------------|--------------|
|--------------|--------------|--------------|
|-9-9-9--9--9--|-9-9-9--9--9--|-9-9-9--9--9--|
|-5-5-5--9--5--|-7-7-7--7--7--|-9-9-9--9--9--|
|-5-5-5--5--5--|-7-7-7--7--7--|-9-9-9--9--9--|


  1.
                G5                  A5                  B5
  E E Q  Q  E S S   +E  E Q  Q  E S S   +E  E Q  Q  E S S
|-----------------|-------------------|---------------------||
|-----------------|-------------------|--------------------o||
|-----------------|-------------------|---------------------||
|-9-9-9--9--9-x-5-|-(5)-5-------5-5-7-|-(7)-7-------7-7-9---||
|-9-9-9--9--9-x-5-|-(5)-5-------5-5-7-|-(7)-7-------7-7-9--o||
|-9-9-9--9--9-x-5-|-(5)-5-------5-5-7-|-(7)-7-------7-7-9---||


                 Bridge
  2.
                  Dsus2               A5             Bsus2
  E E Q  Q  Q      E  E  Q   Q   Q    E E Q  Q  Q    E E Q  Q  Q
|--------------||-------------------|--------------|--------2--2---|
|--------------||-------------------|--------------|--------2--2---|
|--------------||-------------------|-9-9-9--9--9--|-4-4-4--4--4---|
|-9-9-9--9--9--||-14-14-14--14--14--|-7-7-7--7--7--|-4-4-4--4--4---|
|-9-9-9--9--9--||-12-12-12--12--12--|-7-7-7--7--7--|-2-2-2--2--2---|
|-9-9-9--9--9--||-12-12-12--12--12--|-7-7-7--7--7--|---------------|


                 Dsus2               A5             Bsus2
  E E Q  Q  Q     E  E  Q   Q   Q    E E Q  Q  Q    E E Q  Q  Q
|--------2--2--|-------------------|--------------|--------2--2---|
|--------2--2--|-------------------|--------------|--------2--2---|
|-4-4-4--4--4--|-------------------|-9-9-9--9--9--|-4-4-4--4--4---|
|-4-4-4--4--4--|-14-14-14--14--14--|-7-7-7--7--7--|-4-4-4--4--4---|
|-2-2-2--2--2--|-12-12-12--12--12--|-7-7-7--7--7--|-2-2-2--2--2---|
|--------------|-12-12-12--12--12--|-7-7-7--7--7--|---------------|


                                            D.S. al Coda
                G5                  A5                  B5
  E E Q  Q  E S S   +E  E Q  Q  E S S   +E  E Q  Q  E S S
|--------2--------|-------------------|--------------------||
|--------2--------|-------------------|--------------------||
|-4-4-4--4--4-4---|-------------------|--------------------||
|-4-4-4--4--4-4-5-|-(5)-5-------5-5-7-|-(7)-7-------7-7-9--||
|-2-2-2--2--2-2-5-|-(5)-5-------5-5-7-|-(7)-7-------7-7-9--||
|---------------5-|-(5)-5-------5-5-7-|-(7)-7-------7-7-9--||


                 Outro
  &
                  G5            A5                  B5
  E E Q  Q  Q     E E Q  Q  E S S   E E E E E E E S S
|--------------||-----------------|-------------------|
|--------------||-----------------|-------------------|
|--------------||-----------------|-------------------|
|-9-9-9--9--9--||-5-5-5--5--5-5-7-|-7-7-7-7-7-7-7-7-9-|
|-9-9-9--9--9--||-5-5-5--5--5-5-7-|-7-7-7-7-7-7-7-7-9-|
|-9-9-9--9--9--||-5-5-5--5--5-5-7-|-7-7-7-7-7-7-7-7-9-|


  Gtr II
   W                    H        Q    Q
|---------------------|-------------------|
|---------------------|-------------------|
|---------------------|---------11---14---|
|---------------------|----------x----x---|
|---------------------|----------9---12---|
|---------------------|-------------------|
|
| Gtr I
| +E  E E E E E E S S   E E E E  E E  E E
|---------------------|-------------------|
|---------------------|-------------------|
|---------------------|-------------------|
|-(9)-9-9-9-9-9-9-9-9-|-9-9-9-9--9-9--9-9-|
|-(9)-9-9-9-9-9-9-9-9-|-9-9-9-9--9-9--9-9-|
|-(9)-9-9-9-9-9-9-9-9-|-9-9-9-9--9-9--9-9-|


  Dsus2                  A5
   +E   Q.      H         H.         Q
|----------------------|----------------|
|----------------------|----------------|
|-(14)-16------14------|-11----------9--|
|-------x-------x------|--x----------x--|
|-(12)-14------12------|--9----------7--|
|----------------------|----------------|
|
|   E   E   Q   Q   Q     E  E Q  Q  Q
|----------------------|----------------|
|----------------------|----------------|
|----------------------|--9--9-9--9--9--|
|--14--14--14--14--14--|--7--7-7--7--7--|
|--12--12--12--12--12--|--7--7-7--7--7--|
|--12--12--12--12--12--|--7--7-7--7--7--|


  Bsus2                              Gsus2            E5
  H       H        +H.          Q     +W               W
|---------------|------------------|----------------|--------------|
|---------------|------------------|----------------|--------------|
|-8------11-----|-(11)---------14--|-(14)-----------|-16-----------|
|-x-------x-----|---------------x--|----------------|--x-----------|
|-6-------9-----|--(9)---------12--|-(12)-----------|-14-----------|
|---------------|------------------|----------------|--------------|
|
| E E Q   Q  Q      E  E Q  Q   Q      E  E Q  H       E E Q  H
|---------2--2--|-----------2---2--|----------------|--------------|
|---------2--2--|-----------2---2--|----------------|--------------|
|-4-4-4---4--4--|---4--4-4--4---4--|----------------|--------------|
|-4-4-4---4--4--|---4--4-4--4---4--|---7--7-7--7----|--2-2-2--2----|
|-2-2-2---2--2--|---2--2-2--2---2--|---5--5-5--5----|--2-2-2--2----|
|---------------|------------------|---5--5-5--5----|--2-2-2--2----|


  F#5
  Gtr II
   W                              +W
|------------------------------|-------------------------------|
|------------------------------|-------------------------------|
|-18---------------------------|-(18)--------------------------|
|--x---------------------------|-------------------------------|
|-16---------------------------|-(16)--------------------------|
|------------------------------|-------------------------------|
|
| Gtr III
|  Q       Q       Q       Q       Q       Q       Q       Q
|------------------------------|-------------------------------|
|------------------------------|-------------------------------|
|-11b12r==11b12r==11b12r==11---|--11b12r==11b12r==11b12r==11---|
|------------------------------|-------------------------------|
|--9b10r===9b10r===9b10r===9---|---9b10r===9b10r===9b10r===9---|
|------------------------------|-------------------------------|
|
| Gtr I
|  PM--------------------------------------------------------|
|  E    E  E    E  E    E  E E     E    E  E    E  E    E  E E
|------------------------------|-------------------------------|
|------------------------------|-------------------------------|
|------------------------------|-------------------------------|
|------------------------------|-------------------------------|
|--4----4--4----4--4----4--4-4-|---4----4--4----4--4----4--4-4-|
|--4----4--4----4--4----4--4-4-|---4----4--4----4--4----4--4-4-|


  G5             A5             B5
  Gtr II
   W              W              E  E  E  E  H
|--------------|--------------|-------------------*|
|--------------|--------------|-------------------*|
|-19-----------|-21-----------|-16-16-16-16-16----*|
|--x-----------|--x-----------|--x--x--x--x--x----*|
|-17-----------|-19-----------|-14-14-14-14-14----*|
|--------------|--------------|-------------------*|
|
| Gtr I
|  E E Q  H       E E Q  H       E  E  E  E  H
|--------------|--------------|-------------------*|
|--------------|--------------|-------------------*|
|--------------|--------------|-------------------*|
|--5-5-5--5----|--7-7-7--7----|--9--9--9--9--9----*|
|--5-5-5--5----|--7-7-7--7----|--9--9--9--9--9----*|
|--5-5-5--5----|--7-7-7--7----|--9--9--9--9--9----*|


Duration Legend
---------------
W - whole; H - half; Q - quarter; E - 8th; S - 16th; T - 32nd; X - 64th; a - acciaccatura
+ - note tied to previous; . - note dotted; .. - note double dotted
Uncapitalized letters represent notes that are staccato (1/2 duration)
Irregular groupings are notated above the duration line
Duration letters will always appear directly above the note/fret number it represents the
duration for.  Duration letters with no fret number below them represent rests.  Multi-
bar rests are notated in the form Wxn, where n is the number of bars to rest for.  Low
melody durations appear below the staff

Tablature Legend
----------------
 h   - hammer-on
 p   - pull-off
 b   - bend
 pb  - pre-bend
 r   - bend release (if no number after the r, then release immediately)
 /\  - slide into or out of (from/to "nowhere")
 s   - legato slide
 S   - shift slide
  - natural harmonic
[n]  - artificial harmonic
n(n) - tapped harmonic
 ~   - vibrato
 tr  - trill
 T   - tap
 TP  - trem. picking
 PM  - palm muting
\n/  - tremolo bar dip; n = amount to dip
 \n  - tremolo bar down
 n/  - tremolo bar up
/n\  - tremolo bar inverted dip
 =   - hold bend; also acts as connecting device for hammers/pulls
 <>  - volume swell (louder/softer)
 x   - on rhythm slash represents muted slash
 o   - on rhythm slash represents single note slash

Misc Legend
-----------
 |  - bar
||  - double bar
||o - repeat start
o|| - repeat end
*|  - double bar (ending)
 :  - bar (freetime)
 $  - Segno
 &  - Coda
Tempo markers -  = BPM(8/16=s8/s16), where s8 = swing 8ths, s16 = swing 16ths
            
Submit corrections

comments powered by Disqus
↑ Back to top | Papa Roach Tabs for She Loves Me Not. Lyrics for acoustic guitar and electric guitar. Tablatures and chords are parodies/interpretations of the original songs. You may use it for private study, scholarship, research or language learning purposes only