» » »

Papa Roach, She Loves Me Not Tabs (ver.8)

Artists:  A B C D E F G H I J K L M N O P Q R S T U V W X Y Z # 

She Loves Me Not Tabs (ver.8)

Papa Roach Tabs
 Rating:
4/5 (4 votes)
She Loves Me Not lessons Tabs too difficult? Try these video lessons and learn fast
1
                band: Papa Roach

This is usually played played with a different tuning but this how it is 
played in dropped-d 

She loves me not
(dropped-D)

VERSE
part1
e-------------------------------------
B-------------------------------------
G-------------------------------------
D-8-10-10--10-7-7--7-4-4--4-5-7-7-7-7-
A-8-10-10--10-7-7--7-4-4--4-5-7-7-7-7-
D-8-10-10--10-7-7--7-4-4--4-5-7-7-7-7-

part2
e-------------------------------------
B-------------------------------------
G-------------------------------------
D-8-10-10--10-7-7--7-4-4--4-5-7-7-2-2-
A-8-10-10--10-7-7--7-4-4--4-5-7-7-2-2-
D-8-10-10--10-7-7--7-4-4--4-5-7-7-2-2-

PRE-CHORUS
GTR1
e---------------------
B---------------------
G---------------------
D-7-7--3-3--2-2--5-5--
A-7-7--3-3--2-2--5-5--
D-7-7--3-3--2-2--5-5--

GTR2
e--------------
B-7-7-5--8-7-5-
G-7-7-5--8-7-5-
D--------------
A--------------
D--------------

CHORUS
e----------------------------------
B----------------------------------
G----------------------------------
D-7-7-7--9-9-9--10-10-10--10-10-10-
A-7-7-7--9-9-9--10-10-10--10-10-10-
D-7-7-7--9-9-9--10-10-10--10-10-10-

BRIDGE 1 (leading into verse)
e--------------
B--------------
G--------------
D-7-4-4--5-7-7-
A-7-4-4--5-7-7-
D-7-4-4--5-7-7-

SOLO
e--------------------
B-10--11--13--12--11-
G--------------------
D--------------------
A--------------------
D--------------------

BRIDGE 2
e-------------------------9--------9-
B-------------------------9--------9-
G-------------------------9--------9-
D-10-10-10--5-5-5--7-7-7--7-7-7-7--7-
A-10-10-10--5-5-5--7-7-7----7-7-7----
D-10-10-10--5-5-5--7-7-7----7-7-7----

ORDER:
VERSE 1
VERSE 2
VERSE 2
PRECHORUS
CHORUS X2
BRIDGE 1
VERSE 1
VERSE 2
VERSE 1
PRECHORUS
CHORUS X2
BRIDGE 2
SOLO(over verse)
CHORUS X2
BRIDGE 2 X2
            
Submit corrections

comments powered by Disqus
↑ Back to top | Papa Roach Tabs for She Loves Me Not. Lyrics for acoustic guitar and electric guitar. 1 Tablatures and chords are parodies/interpretations of the original songs. You may use it for private study, scholarship, research or language learning purposes only