» » »

Scars Tabs (ver.2)

Artists:  A B C D E F G H I J K L M N O P Q R S T U V W X Y Z # 

Scars Tabs (ver.2)

Papa Roach
Rating:
0/5 (0 votes)

Hard to play? Try these video lessons and learn fast.
                -------------------------------------------------------------------------------
                             Scars - Papa Roach
-------------------------------------------------------------------------------

Tuning: Im playing it in Drop C...but you can just bring it up 2 frets to play
it normally if you want

Intro Sustained Chords (slight distortion)
D|---------------------------------------------------------------------------|
A|---------------------------------------------------------------------------|
F|--6----------8-------------------------------------------------------------|
C|--6----6-----8-----4-------------------------------------------------------|
G|--4----6-----6-----4-------------------------------------------------------|
C|-------6-----------4-------------------------------------------------------|
       ^repeat twice...then slide up to 6th fret second time after the 4...
Verse : I didnt put the walk downs in this tab...but they are on the 4th string
and just walk downs of the chords i believe

D|---------------------------------------------------------------------------|
A|---------------------------------------------------------------------------|
F|---------------------------------------------------------------------------|
C|-8------3------4------6----------------------------------------------------|
G|-8------3------4------6----------------------------------------------------|
C|-8------3------4------6----------------------------------------------------|

Chorus
D|---------------------------------------------------------------------------|
A|---------------------------------------------------------------------------|
F|--6------------8-----------------------------------------------------------|
C|--6-----6------8-----4----6------------------------------------------------|
G|--4-----6------6-----4----6------------------------------------------------|
C|--------6------------4----6------------------------------------------------|

Goes back to verse...then chorus again...then back to the same chord progression
as the verse.  The rest of the song is the same chords as the chorus and opening...
just some slightly different rhythyms...he sustains the chords again...and then
palm mutes them....and then goes back to the chorus.

Last Chord

D|---------------------------------------------------------------------------|
A|---------------------------------------------------------------------------|
F|---6\----------------------------------------------------------------------|
C|---6\----------------------------------------------------------------------|
G|---4\----------------------------------------------------------------------|
C|---------------------------------------------------------------------------|

| /  slide up
| \  slide down
| h  hammer-on
| p  pull-off
| ~  vibrato
| +  harmonic
| x  Mute note
===============================================================================
            
Hard to play? Try these video lessons and learn fast. | Correct




comments powered by Disqus
↑ Back to top | Tablatures and chords are parodies/interpretations of the original songs. You may use it for private study, scholarship, research or language learning purposes only