» » »

Revenge Tabs (ver.3)

Artists:  A B C D E F G H I J K L M N O P Q R S T U V W X Y Z # 

Revenge Tabs (ver.3)

Papa Roach
Rating:
0/5 (0 votes)

Hard to play? Try these video lessons and learn fast.
                TUNING: drop d (D-A-D-G-B-E)

     RIFF A:

    |---------|
    |---------|
    |-9--9--4-|
    |-9--9--4-|
    |-7--7--2-|
    |---------|

     RIFF B:

    |---------|
    |---------|
    |-5--5--4-|
    |-5--5--4-|
    |-3--3--2-|
    |---------|

     RIFF C:

    |-----|
    |-----|
    |-5\4-| 
    |-5\4-|
    |-3\2-|
    |-----|

     RIFF D:

    |-----------------|
    |-----------------|
    |-----------------|
    |-----------------|
    |---4-2-4---4-----|
    |-2-------5---4-5-|

     RIFF E:

    |-----------------|
    |-----------------|
    |-5-5-5-5-7-7-7-7-|
    |-5-5-5-5-7-7-7-7-|
    |-3-3-3-3-5-5-5-5-|
    |-----------------|

     RIFF F:

    |-------------------------------------------|
    |-------------------------------------------|
    |-5-4-x-4-x-4-x-x-4-x-x-5-4-x-4-x-4-x-x-4-7-|
    |-5-4-x-4-x-4-x-x-4-x-x-5-4-x-4-x-4-x-x-4-7-|
    |-3-2-x-2-x-2-x-x-2-x-x-3-2-x-2-x-2-x-x-2-5-|
    |-------------------------------------------|

     RIFF G:

    |-------------------------|
    |-------------12~---------|
    |-9~-----7~-----------10~-|
    |-------------------------|
    |-------------------------|
    |-------------------------|

     RIFF H:

    |-----------------------|
    |-----------------------|
    |---11-9-11----11-------|
    |-9-11-9-11-12-11-11-12-|
    |-9--9-7--9-12--9-11-12-|
    |-9---------12----11-12-|

     RIFF I:

    |-----------------------------|
    |-----------------------------|
    |-----------------11-9-11-7---|
    |-9-9-9---7-7-7-9-11-9-11-7-7-|
    |-9-9-9---7-7-7-9--9-7--9-5-7-|
    |-9-9-9---7-7-7-9-----------7-|

     RIFF J:

    |-----------------|
    |---7-5-7---7-----|
    |-4-------7---6-7-|
    |-----------------|
    |-----------------|
    |-----------------|
            
Hard to play? Try these video lessons and learn fast. | Correct




comments powered by Disqus
↑ Back to top | Tablatures and chords are parodies/interpretations of the original songs. You may use it for private study, scholarship, research or language learning purposes only