» » »

Papa Roach, Reveng Tabs (ver.1)

Artists:  A B C D E F G H I J K L M N O P Q R S T U V W X Y Z # 

Reveng Tabs (ver.1)

Papa Roach Tabs
Rating:
0/5 (0 votes)
Reveng lessons Tabs too difficult? Try these video lessons and learn fast
                Here it is.  Revenge by papa roach, the whole song.
I am sure enough of this song.  Tuning: D-A-D-G-B-E
The intro is close enough, I'm not too sure of the fill. 
The riff is right but I'm not too sure of the bridge. 
Please e-mail me.
Key: * = palm mute.
E|-----------------------|-------------------|--------------------------------
B|-----------------------|-------------------|--------------------------------
G|-----------------------|-------------------|--------------------------------
D|-2--2---9---2--2---7---|--2--9---2--2--7---|--------------------------------
A|-2--2---9---2--2---7---|--2--9---2--2--7---|--------------------------------
D|-2--2---9---2--2---7---|--2--9---2--2--7---|--------------------------------
Intro.                    Fill 1.  *                                                       
You can just take a one beat rest instead of palm mute.

E|--------------------------|-------------------------------------------------
B|--------------------------|-------------------------------------------------
G|--------------------------|-------------------------------------------------
D|----4--2--4-----4-----4---|-------------------------------------------------
A|-2-----------5-----4------|-------------------------------------------------
D|--------------------------|-------------------------------------------------
I am pretty sure of this riff.

E|--------------------------|-------------------------------------------------
B|--------------------------|-------------------------------------------------
G|--------------------------|-------------------------------------------------
D|----4--2--4-----4-----4---|-------------------------------------------------
A|-2--4--2--4--5--4--4--4---|-------------------------------------------------
D|-2-----------5-----4------|-------------------------------------------------
Bridge.  I am not to sure of this bit.  It could also be:

E|--------------------------|-------------------------------------------------
B|--------------------------|-------------------------------------------------
G|-----4--2--4-----4-----4--|-------------------------------------------------
D|--2--4--2--4--5--4--4--4--|-------------------------------------------------
A|--2-----------5-----4-----|-------------------------------------------------
D|--------------------------|-------------------------------------------------
Or it could just be normal.
            
Submit corrections

comments powered by Disqus
↑ Back to top | Papa Roach Tabs for Reveng. Lyrics for acoustic guitar and electric guitar. Tablatures and chords are parodies/interpretations of the original songs. You may use it for private study, scholarship, research or language learning purposes only