» » »

Papa Roach, Prlastresort Bass tabs (ver.1)

Artists:  A B C D E F G H I J K L M N O P Q R S T U V W X Y Z # 

Prlastresort Bass tabs (ver.1)

Papa Roach Tabs
 Rating:
4/5 (4 votes)
Prlastresort lessons Tabs too difficult? Try these video lessons and learn fast
                
This is my first tab, so bare with me.
I'll take this time to introduce myself. The name's Zinn. I play in the band 
called Half Baked. We tour around the north shore of Mass. and play night 
clubs in Boston. You'll probably hear more about us after high school in a 
few years. If u wanna learn more about us go to 
well, enough said, here's the tab....

    Beginning and verse
G|-------------------------------------------------------
D|-------------------------------------------------------
A|-------------------------------------------------------
E|--5-5--3-3--1-1--0-0--3-3--5-5--3-3--1-1--0-0--3-3--5-5

          chorus
G|--------------------------------------
D|--------------------------------------
A|------------------3-3-5-5-7-7-9-9-----
E|--5-5-5-5-3-3-3-3---------------------

  this is the "nothing's allright, nothing is fine" part
G|-----------------------------------------
D|-----------------------------------------
A|--7-7-7-7-3-3-3-3-7-7-7-7-5-5-5-5---------
E|----------------------------------------

   I think that's it. Your really going to need to play with cd or mp3. You 
have to play with distortion or dub it like your playing P.O.D's southtown 
to make it sound right. start playing right after the singer is done with 
the first line... "Cut my life into pieces. This is my last resort." PaPa 
RoAcH. If You have corrections, e-mail me. I always like to hear from fans, 
the public, and other bands. I'd like to have a summer tour this summer of 
2000.
       If you are a band member of a band around or near Boston or on the 
East shore. E-mail me and we could possibly add you to our bill. We're on 
the BoRn AnD RaZeD tour going around different night clubs and earning cash. 
I'd LIke to have a big outdoor concert this summer. Well, c ya, e-mail me.
            
Submit corrections

comments powered by Disqus
↑ Back to top | Papa Roach Bass for Prlastresort. Lyrics for acoustic guitar and electric guitar. Tablatures and chords are parodies/interpretations of the original songs. You may use it for private study, scholarship, research or language learning purposes only