» » »

Obsession Tabs (ver.2)

Artists:  A B C D E F G H I J K L M N O P Q R S T U V W X Y Z # 

Obsession Tabs (ver.2)

Papa Roach
Rating:
0/5 (0 votes)

Hard to play? Try these video lessons and learn fast.
                (Intro)
Obsession
Papa Roach

e|-------------------------------------|
b|-------------------------------------|
g|-------------------------------------|
D|--0--3--2--5--3--2/3-----------------|
A|-------------------------------------|
E|-------------------------------------|

e|-------------------------------------|
b|-------------------------------------|
g|-------------------------------------|
D|--5--3--2--5--3--2/3-----------------|
A|-------------------------------------|
E|-------------------------------------|

e|-------------------------------------|
b|-------------------------------------|
g|-------------------------------------|
D|-----3--2--5--3--2/3-----------------|
A|--3----------------------------------|
E|-------------------------------------|

e|-------------------------------------|
b|-------------------------------------|
g|-------------------------------------|
D|-----3--2--5--3--3/2-----------------|
A|--4----------------------------------|
E|-------------------------------------|

the intro was the only bit i cud work out that i'm 88% sure about. the rest of it i jus wing it
            
Hard to play? Try these video lessons and learn fast. | Correct




comments powered by Disqus
↑ Back to top | Tablatures and chords are parodies/interpretations of the original songs. You may use it for private study, scholarship, research or language learning purposes only