» » »

Papa Roach, Live This Down Bass tabs (ver.1)

Artists:  A B C D E F G H I J K L M N O P Q R S T U V W X Y Z # 

Live This Down Bass tabs (ver.1)

Papa Roach Tabs
 Rating:
4/5 (4 votes)
Live This Down lessons Tabs too difficult? Try these video lessons and learn fast
1
                -------------------------------------------------------------------------------
			     Live This Down - Papa Roach
-------------------------------------------------------------------------------


Tuning: DADG

Another great song from Papa Roach, this tab is fairly accurate; I worked most of it out 
using the guitar tab, as Tobin pretty much follows the guitar line in this song! Enjoy (:

GUITAR INTRO (Guitar plays for two measures)

INTRO [x2]
G|------------------------------------------------------------|
D|------------------------------------------------------------|
A|-----------------------------3-3-3-3-x-x-x-x----------------|
D|-2-2-0-2-x-x-x-2-2-0-2-x-x-x-----------------5-5-5-5-0-0-0-0|

VERSE, PT. 1 [x2]
G|----------------------------------------------------|
D|----------------------------------------------------|
A|-----------------------------3-3-3-3----------------|
D|-2-2-0-2-------2-2-0-2-----------------------5-5-5-5|

VERSE, PT. 2 [x2]
G|------------------------------------------------------------|
D|------------------------------------------------------------|
A|-----------------------------3-3-3-3------------------------|
D|-2-2-0-2-------2-2-0-2-----------------------5-5-5-5-0-0-0-0|

PRE-CHORUS
G|-------------------------------------|
D|-------------------------------------|
A|-7~~~~~~~~~~~~~~~~~~~~~~~~~~~--------|
D|-----------------------------32032032|

CHORUS [x2]
G|----------------------------------------------------|
D|----------------------------------------------------|
A|---------------------3-3-3-3-3-3-3-3----------------|
D|-2-2-------2-2-----------------------5-5-5-5-0-0-0-0|

G|-------------------------------------------|
D|-------------------------------------------|
A|---------------------3-3-3-3-3-3-3-3-------|
D|-2-2-------2-2-----------------------5~~0~~|

POST-CHORUS
G|------------------------------------------------------------|
D|------------------------------------------------------------|
A|-----------------------------3-3-3-3-x-x-x-x----------------|
D|-2-2-0-2-x-x-x-2-2-0-2-x-x-x-----------------5-5-5-5-0-0-0-0|

VERSE, PT. 1 [x2]
G|----------------------------------------------------|
D|----------------------------------------------------|
A|-----------------------------3-3-3-3----------------|
D|-2-2-0-2-------2-2-0-2-----------------------5-5-5-5|

VERSE, PT. 2 [x2]
G|------------------------------------------------------------|
D|------------------------------------------------------------|
A|-----------------------------3-3-3-3------------------------|
D|-2-2-0-2-------2-2-0-2-----------------------5-5-5-5-0-0-0-0|

PRE-CHORUS
G|-------------------------------------|
D|-------------------------------------|
A|-7~~~~~~~~~~~~~~~~~~~~~~~~~~~--------|
D|-----------------------------32032032|

CHORUS [x2]
G|----------------------------------------------------|
D|----------------------------------------------------|
A|---------------------3-3-3-3-3-3-3-3----------------|
D|-2-2-------2-2-----------------------5-5-5-5-0-0-0-0|

G|-------------------------------------------|
D|-------------------------------------------|
A|---------------------3-3-3-3-3-3-3-3-------|
D|-2-2-------2-2-----------------------5~~0~~|

BRIDGE
G|-------------------------------------------------|
D|-------------------------------------------------|
A|-------------------------------------------------|
D|-2-2-0-2-------2-2-0-2-3b~~2-2-0-2-------32032032|

(Rest for guitar and vocal solo)

G|-------___-----|
D|---\/----/-----|
A|---/\---/------|
D|-2-2-0-2-x-x-x-|

CHORUS [x2]
G|----------------------------------------------------|
D|----------------------------------------------------|
A|---------------------3-3-3-3-3-3-3-3----------------|
D|-2-2-------2-2-----------------------5-5-5-5-0-0-0-0|

G|-------------------------------------------|
D|-------------------------------------------|
A|---------------------3-3-3-3-3-3-3-3-------|
D|-2-2-------2-2-----------------------5~~0~~|

OUTRO
G|-------------------------------------------------|
D|-------------------------------------------------|
A|-------------------------------------------------|
D|-2-2-0-2-------2-2-0-2-3b~~2-2-0-2-------32032032|

| /  slide up
| \  slide down
| h  hammer-on
| p  pull-off
| ~  vibrato
| +  harmonic
| x  Mute note
===============================================================================
            
Submit corrections

comments powered by Disqus
↑ Back to top | Papa Roach Bass for Live This Down. Lyrics for acoustic guitar and electric guitar. 1 Tablatures and chords are parodies/interpretations of the original songs. You may use it for private study, scholarship, research or language learning purposes only