» » »

Papa Roach, Lifeline Tabs (ver.6)

Artists:  A B C D E F G H I J K L M N O P Q R S T U V W X Y Z # 

Lifeline Tabs (ver.6)

Papa Roach Tabs
Rating:
0/5 (0 votes)
Hard to play? Try these video lessons and learn fast.
                this is lifeline i worked off of a few other tabs but made a few small changes

a lot of people have been emailing me about the tuning change after the intro he doesn't
it when he plays live or at least i havent seen that he did however do an interview
that "i used a device called a voice capo when recording this song, the voice capo is
of holding down all the strings like your average capo but it also can hold down
strings." so i assume that with that he did so wth this song plus it sounds like a D5
but it is not, it is a D it is just how he uses his distortion to give it that almost yet
quite wah pedal sound found throughout the new album. thank you all for the positive 
and comments. glad i could clear that up for anyone. thanks again and enjoy! dont
                      -will

figure A.
E|------------------------------------------------------------------------------|
B|------------------------------------------------------------------------------|
G|------------------------------------------------------------------------------|x4
D|12-0-0-12-0-0-12-0-11-0-0-11-0-0-11-0-16-0-0-16-0-0-16-0-11-0-0-11-0-0-11-0---|
A|------------------------------------------------------------------------------|
D|------------------------------------------------------------------------------|

E|------------------------------------------------------------------------------|
B|------------------------------------------------------------------------------|
G|------------------------------------------------------------------------------|
D|12-0-0-12-0-0-12-0-11-0-0-11-0-0-11-0-17-0-0-17-0-0-17-0-11-0-0-11-0-0-11-0---|
A|------------------------------------------------------------------------------|
D|------------------------------------------------------------------------------|

E|------------------------------------------------------------------------------|
B|------------------------------------------------------------------------------|
G|------------------------------------------------------------------------------|
D|12-0-0-12-0-0-12-0-11-0-0-1-0-0-11-0-16-0-0-16-0-0-16-0-11-0-0-11-0-0-11-0----|
A|------------------------------------------------------------------------------|
D|------------------------------------------------------------------------------|

E|------------------------------------------------------------------------------|
B|------------------------------------------------------------------------------|
G|------------------------------------------------------------------------------|
D|------------------------------------------------------------------------------|
A|5~~~~~~~~~~~~-----------------------------------------------------------------|
D|------------------------------------------------------------------------------|
Verse 1:
   D                                G
E|-x----------xx-x----------x3-2-----x----------xx-x----------xx--x-----|
B|-3----------3x-3----------33-3-----3----------3x-3----------33--3-----|
G|-2----------2x-2----------22-2-----0----------0x-0----------00--0-----|
D|-0----------0x-0----------00-0-----0----------0x-0----------00--0-----|
A|-0-------------0----------0--------2-------------2----------2---2-----|
E|-----------------------------------3-------------3----------3---------|

  Em                A               D
E|-x----------------x---------------x-----------------------------------|
B|-0----------------x---------------3-----------------------------------|
G|-0----------------2---------------2----------/7-6-4-2-----------------|
D|-2----------------2---------------0-----------------------------------|
A|-2----------------0---------------0----------/5-4-2-0-----------------|
E|-0--------------------------------------------------------------------|


Verse 2:
   D                                  G
E|-x-xx-x---xx-xx---x-xx-x---xx-xx----x-xx-x---xx-xx---x-xx-x---xx-xx---|
B|-3-3x-3---3x-33---3-3x-3---3x-33----3-3x-3---3x-33---3-3x-3---3x-33---|
G|-2-2x-2---2x-22---2-2x-2---2x-22----0-0x-0---0x-00---0-0x-0---0x-00---|
D|-0-0x-0---0x-00---0-0x-0---0x-00----0-0x-0---0x-00---0-0x-0---0x-00---|
A|-0----0------0----0----0------0-----2----2------22---2----2------22---|
E|------------------------------------3----3------3----3----3------3----|

   Em               A                D
E|-x-xx-x---xx-xx---x-xx-x---xx-xx---x----------------------------------|
B|-0-0x-0---0x-00---x-xx-x---xx-xx---3----------------------------------|
G|-0-0x-0---0x-00---2-2x-2---2x-22---2----------/7-9-11-14--------------|
D|-2-2x-2---2x-22---2-2x-2---2x-22---0----------------------------------|
A|-2----2------2----0----0------0----0----------/5-7--9-12--------------|
E|-0----0------0--------------------------------------------------------|

Chorus:
               (Fill 2)
E|-----------------------------|
B|-----------------------------|
G|- Repeat -----/14-12-11-9----|
D|- Fig. A --------------------|
A|--------------/12-10--9-7----|
E|-----------------------------|

verse 3:
   D                                  G
E|-x-xx-x---xx-xx---x-xx-x---xx-xx----x-xx-x---xx-xx---x-xx-x---xx-xx---|
B|-3-3x-3---3x-33---3-3x-3---3x-33----3-3x-3---3x-33---3-3x-3---3x-33---|
G|-2-2x-2---2x-22---2-2x-2---2x-22----0-0x-0---0x-00---0-0x-0---0x-00---|
D|-0-0x-0---0x-00---0-0x-0---0x-00----0-0x-0---0x-00---0-0x-0---0x-00---|
A|-0----0------0----0----0------0-----2----2------22---2----2------22---|
E|------------------------------------3----3------3----3----3------3----|

   Em               A                D
E|-x-xx-x---xx-xx---x----------------x----------------------------------|
B|-0-0x-0---0x-00---x----------------3----------------------------------|
G|-0-0x-0---0x-00---2---- pause -----2----------/7-9-11-14--------------|
D|-2-2x-2---2x-22---2----------------0----------------------------------|
A|-2----2------2----0----------------0----------/5-7--9-12--------------|
E|-0----0------0--------------------------------------------------------|


Chorus:

E|-----------------------------| |-----------------------------|
B|-----------------------------| |-----------------------------|
G|- Repeat ---- W/Fill 1 ------| |- Repeat ---- W/Fill 1 ------|
D|- Fig. A --------------------| |- Fig. A --------------------|
A|-----------------------------| |-----------------------------|
E|-----------------------------| |-----------------------------|


Bridge:

E|-------------x---------------------------------x-----------------------|
B|-------------3---------------------------------3-----------------------|
G|-4-/7--9-11--0---------------------4-/7--9-11--0-----------------------|
D|-------------0----/5p4-2-2h4-0-------------- --0----/5p4-2-2h4/7-------|
A|-2-/5--7--9--2---------------------2-/5--7--9--2-----------------------|
E|-------------3---------------------------------3-----------------------|
            

comments powered by Disqus
↑ Back to top | Papa Roach Tabs for Lifeline. Lyrics for acoustic guitar and electric guitar. Tablatures and chords are parodies/interpretations of the original songs. You may use it for private study, scholarship, research or language learning purposes only