» » »

Papa Roach, Legacy Tabs (ver.3)

Artists:  A B C D E F G H I J K L M N O P Q R S T U V W X Y Z # 

Legacy Tabs (ver.3)

Papa Roach Tabs
 Rating:
4/5 (4 votes)
Legacy lessons Tabs too difficult? Try these video lessons and learn fast
1
                INTRO
e--------------------------------------------
B--------------------------------------------
G-----2--2-----2--2-----2--2-----2--2-----2--
D-----0--0-----0--0-----0--0-----0--0-----0--
A--X--0--0--X--0--0--X--0--0--X--0--0--X--0--
D--X--0--0--X--0--0--X--0--0--X--0--0--X--0--

VERSE
e-------------------------------------------
B-------------------------------------------
G-------------------------------------------
D----7---7-10-7-----------7---7-10-7--------
A----8---8--8-------------8---8--8----------
D--X--------------X--X--X-------------X--X--

PRE-CHORUS
e--------------------------------------------------
B--------------------------------------------------
G--------------------------------------------------
D--8--8--8--8--8--8--8--8--8--8--8--8--8--8--8--8--
A-10-10-10-10-10-10-10-10-10-10-10-10-10-10-10-10--
D--8--8--8--8--8--8--8--8--8--8--8--8--8--8--8--8--


e------------------------------------------------------------------
B------------------------------------------------------------------
G------------------------------------------------------------------
D--10--10--10--10--10--10--10--10--10--10--10--10--10--10--10--10--
A--12--12--12--12--12--12--12--12--12--12--12--12--12--12--12--12--
D--10--10--10--10--10--10--10--10--10--10--10--10--10--10--10--10--

CHORUS
e----------------------------------------------------------
B----------------------------------------------------------
G--7-----------9-----------10--10--10--10--10--10--10--10--
D--X--0--0--0--X--0--0--0---X---X---X---X---X---X---X---X--
A--5--0--0--0--7--0--0--0---8---8---8---8---8---8---8---8--
D-----0--0--0-----0--0--0----------------------------------

e--------------------------------------------------
B--------------------------------------------------
G--5--5--5--5--5--5--5--5--9--9--9--9--5--5--5--5--
D--3--3--3--3--3--3--3--3--X--X--X--X--X--X--X--X--
A--3--3--3--3--3--3--3--3--7--7--7--7--3--3--3--3--
D--3--3--3--3--3--3--3--3--------------------------

e----------------------------------------------------------
B----------------------------------------------------------
G--7-----------9-----------10--10--10--10--10--10--10--10--
D--X--0--0--0--X--0--0--0---X---X---X---X---X---X---X---X--
A--5--0--0--0--7--0--0--0---8---8---8---8---8---8---8---8--
D-----0--0--0-----0--0--0----------------------------------

e--------------------------------------------------------------
B--------------------------------------------------------------
G--10--10--10--10--10--10--10--10--10--10--10--10--5--5--5--5--
D---8---8---8---8---8---8---8---8---X---X---X---X--X--X--X--X--
A---8---8---8---8---8---8---8---8---8---8---8---8--7--7--7--7--
D---8---8---8---8---8---8---8---8------------------------------

OUTRO
e------------------------------------------------------------------------------------
B------------------------------------------------------------------------------------
G-----2---2-----2---2---7--7--7--7--7--7--7--7--7--7--7--7---2------2-------------2--
D-----0---0-----0---0---X--X--X--X--X--X--X--X--X--X--X--X---0------0-------------0--
A--X--0---0--X--0---0---5--5--5--5--5--5--5--5--5--5--5--5---0------0-------------0--
D--X--0---0--X--0---0----------------------------------------0------0-------------0--
            
Submit corrections

comments powered by Disqus
↑ Back to top | Papa Roach Tabs for Legacy. Lyrics for acoustic guitar and electric guitar. 1 Tablatures and chords are parodies/interpretations of the original songs. You may use it for private study, scholarship, research or language learning purposes only