» » »

Papa Roach, Isedufukndie Bass tabs (ver.1)

Artists:  A B C D E F G H I J K L M N O P Q R S T U V W X Y Z # 

Isedufukndie Bass tabs (ver.1)

Papa Roach Tabs
 Rating:
4/5 (4 votes)
Isedufukndie lessons Tabs too difficult? Try these video lessons and learn fast
1
                Main Riff
G|-------------------------------|
D|-------------------------------|
A|-0-0-0-5-5-5-------3-3-3-1--1--|  
E|-------------3-3-3-------------|
 
Main Riff Variation at the end
G|--------------------------|
D|--------------------------|
A|-1-1-1-0---1-1-1-0--0-0-3-|  
E|--------------------------|
 
Verse I
G|----------------------|
D|----------------------|
A|----------------------|
E|-3---4---2---3---1-1--|
  
Verse II
G|------------------|
D|------------------|
A|------------------|
E|-2---3---4---4-2--|

Verse II Variation
G|-------------------|
D|-------------------|
A|-------------------|
E|-2---3---4---4\2---|

 
-------------------------------
Song structure: |
-------------------------------
Main Riff                 12x
Verse I                    5x
Main Riff                  8x
Verse II and Variation     (I'm too lazy to count any more, 
                            but listen to the song and 
                            you'll get it)
Main Riff and Variation    

 


This is my first tab and I'm not sure if everything is alright. Probably all
riffs are played with low tuning DADG, like many
other papa roach songs but it's not much different.
With DADG the main riff is

G|-------------------------------|
D|-------------------------------|
A|-------1-1-1-------------------|  
D|-3-3-3-------1-1-1-6-6-6-4--4--|

If you have any questions, recommands and/or reclamations write to
            
Submit corrections

comments powered by Disqus
↑ Back to top | Papa Roach Bass for Isedufukndie. Lyrics for acoustic guitar and electric guitar. 1 Tablatures and chords are parodies/interpretations of the original songs. You may use it for private study, scholarship, research or language learning purposes only