>
 >
Harder Than A Coffin Nail

Harder Than A Coffin Nail Guitar Tabs

Papa Roach - Harder Than A Coffin Nail chords, tabs, tablatures, lyrics

Guitar lessons | Add/correct | Request | Top 50 tabs Artists:  A B C D E F G H I J K L M N O P Q R S T U V W X Y Z 0-9

Harder Than A Coffin Nail Guitar Tabs – Papa Roach

CD, Sheet music, Poster

Do you like Harder Than A Coffin Nail? Share with your friends now
Bass TabsTabs
#------------------------------------------------------------------------------##

                   HARDER THAN A COFFIN NAIL (UK BONUS TRACK)
                            As recorded by Papa Roach
                 (From the 2004 Album GETTING AWAY WITH MURDER)

Words by Jacoby Shaddix

Music by Papa Roach
Edited by rockerc

Gtr I (C# G# C# F# A# D#) - 'Bass Fill'
Gtr II (C# G# C# F# A# D#) - 'Jerry - Main '
Gtr III (C# G# C# F# A# D#) - 'Jerry - 2nd '

 Intro - Bass Fill
  Q=140
               N.C.
 4/4
  Gtr I
  W            E E E E E E E E   E E E E E E E E
|----------||------------------|-----------------|
|----------||o-----------------|-----------------|
|----------||------------------|-----------------|
|----------||------------------|-----------------|
|----------||o-----5-----5-----|-8-----8-----8---|
|----------||--0-0---0-0---0-0-|---0-0---0-0---0-|


  E E E E E E E E   E E E E E E E E   3x
|-----------------|-------------------||
|-----------------|------------------o||
|-----------------|-------------------||
|-----------------|-------------------||
|-----8-----8---8-|-0-0-0-3-0-0-3-5--o||
|-8-8---8-8---8---|-------------------||


  E E E E E E E E   E E E E E E E E   E E E E E E E E   W          +W
|-----------------|-----------------|-----------------|----------|--------|
|-----------------|-----------------|-----------------|----------|--------|
|-----------------|-----------------|-----------------|----------|--------|
|-----------------|-----------------|-----------------|----------|--------|
|-----5-----5-----|-8-----8-----8---|-----5-----5-----|----------|--------|
|-0-0---0-0---0-0-|---0-0---0-0---0-|-8-8---8-8---8-8-|-7--------|-(7)----|


   Verse
    Q=165
    Gtr II
    PM|   PM|   PM|     PM|   PM|       PM|   PM|   PM    PM--|   PM|
    E E E E E E E E   E E E E E E E E   E E E E E E E E   E E E E E E E E   3x
||------------------|-----------------|-----------------|-------------------||
||o-----5---5-------|-6-----6-----6---|-----------------|------------------o||
||--7-7--7-7-7-7-7-7|---7-7---7-7---9-|-----7-----7-----|-------5-----5-7---||
||------------------|-----------------|-8-8---8-8---8---|-7-7-7---7-7-------||
||o-----------------|-----------------|-----------------|------------------o||
||------------------|-----------------|-----------------|-------------------||


  E Q  E Q  E E   E Q  E Q  E E   E E E E E E E E    E  E  E  E  E  E  E  E
|---5----5----5-|---------------|-----------------|-------------------------|
|---------------|---6----6----6-|-----------------|-------------------------|
|-7----7----7---|-7----7----7---|-7-7-7-7-7-7-7-7-|--9--9--9--9--9--9--9--9-|
|---------------|---------------|-8-8-8-8-8-8-8-8-|-10-10-10-10-10-10-10-10-|
|---------------|---------------|-----------------|-------------------------|
|---------------|---------------|-----------------|-------------------------|


 Pre-Chorus
  D5                                 F5                           A5
  Q  E E E E E E   E E E E E E E E   Q  E E E E E E   E E E E E E E E
|----------------|-----------------|----------------|-----------------|
|----3-3-3-3-3-3-|-3-3-3-3-3-3-3-3-|----------------|-----------------|
|-7--2-2-2-2-2-2-|-2-2-2-2-2-2-2-2-|----------------|-----------------|
|-7--0-0-0-0-0-0-|-0-0-0-0-0-0-0-0-|-3--3-3-3-3-3-3-|-3-3-3-3-3-3-7-7-|
|-5--0-0-0-0-0-0-|-0-0-0-0-0-0-0-0-|-3--3-3-3-3-3-3-|-3-3-3-3-3-3-7-7-|
|----0-0-0-0-0-0-|-0-0-0-0-0-0-0-0-|-3--3-3-3-3-3-3-|-3-3-3-3-3-3-7-7-|


  Bb5                                G5                 C5
  Q  E E E E E E   E E E E E E E E   Q  E E E E E E   E Q  Q  E E E
|----------------|-----------------|----------------|---------------|
|----------------|-----------------|----------------|---------------|
|----------------|-----------------|----------------|---5--5--5-5-5-|
|-8--8-8-8-8-8-8-|-8-8-8-8-8-8-8-8-|-5--5-5-5-5-5-5-|-x-5--5--5-5-5-|
|-8--8-8-8-8-8-8-|-8-8-8-8-8-8-8-8-|-5--5-5-5-5-5-5-|-x-3--3--3-3-3-|
|-8--8-8-8-8-8-8-|-8-8-8-8-8-8-8-8-|-5--5-5-5-5-5-5-|-x-------------|


 Chorus
  D5                              F5 D5F5 D5F5D5  F5 D5F5 D5F5G5
  Q  E Q  E E E   Q  E Q  E E E   Q  E Q  E E E   Q  E Q  E E E
|---------------|---------------|---------------|---------------|
|---------------|---------------|---------------|---------------|
|-7----7----7---|-7----7----7---|---------------|---------------|
|-7--0-7--0-7-0-|-7--0-7--0-7-0-|-3--0-3--0-3-0-|-3--0-3--0-3-5-|
|-5--0-5--0-5-0-|-5--0-5--0-5-0-|-3--0-3--0-3-0-|-3--0-3--0-3-5-|
|----0----0---0-|----0----0---0-|-3--0-3--0-3-0-|-3--0-3--0-3-5-|


  Bb5D5Bb5D5BbD5  Bb5D5Bb5D5BbD5  G5 D5G5 D5G5D5  G5A5
  Q  E Q  E E E   Q  E Q  E E E   Q  E Q  E E E   E E E E E E E E
|---------------|---------------|---------------|-----------------|
|---------------|---------------|---------------|-----------------|
|---------------|---------------|---------------|-----------------|
|-8--0-8--0-8-0-|-8--0-8--0-8-0-|-5--0-5--0-5-0-|-5-7-7-7-7-7-7-7-|
|-8--0-8--0-8-0-|-8--0-8--0-8-0-|-5--0-5--0-5-0-|-5-7-7-7-7-7-7-7-|
|-8--0-8--0-8-0-|-8--0-8--0-8-0-|-5--0-5--0-5-0-|-5-7-7-7-7-7-7-7-|


 Verse
               N.C.
               PM|   PM|   PM|     PM|   PM|
  W            E E E E E E E E   E E E E E E E E
|----------||------------------|-----------------|
|----------||o-----------------|-6-----6-----6---|
|----------||--7-7-7-7-7-7-7-7-|---7-7---7-7---9-|
|----------||------------------|-----------------|
|----------||o-----------------|-----------------|
|----------||------------------|-----------------|


  PM|   PM|   PM    PM--|   PM|
  E E E E E E E E   E E E E E E E E  3x
|-----------------|------------------||
|-----------------|-----------------o||
|-----7-----7---7-|-------5-----5-7--||
|-8-8---8-8---8---|-7-7-7---7-7------||
|-----------------|-----------------o||
|-----------------|------------------||


  E Q  E Q  E E   E Q  E Q  E E   E E E E E E E E    E  E  E  E  E  E  E  E
|---5----5----5-|---------------|-----------------|-------------------------|
|---------------|---6----6----6-|-----------------|-------------------------|
|-7----7----7---|-7----7----7---|-7-7-7-7-7-7-7-7-|--9--9--9--9--9--9--9--9-|
|---------------|---------------|-8-8-8-8-8-8-8-8-|-10-10-10-10-10-10-10-10-|
|---------------|---------------|-----------------|-------------------------|
|---------------|---------------|-----------------|-------------------------|


 Pre-Chorus
  D5                                 F5                           A5
  Q  E E E E E E   E E E E E E E E   Q  E E E E E E   E E E E E E E E
|----------------|-----------------|----------------|-----------------|
|----3-3-3-3-3-3-|-3-3-3-3-3-3-3-3-|----------------|-----------------|
|-7--2-2-2-2-2-2-|-2-2-2-2-2-2-2-2-|----------------|-----------------|
|-7--0-0-0-0-0-0-|-0-0-0-0-0-0-0-0-|-3--3-3-3-3-3-3-|-3-3-3-3-3-3-7-7-|
|-5--0-0-0-0-0-0-|-0-0-0-0-0-0-0-0-|-3--3-3-3-3-3-3-|-3-3-3-3-3-3-7-7-|
|----0-0-0-0-0-0-|-0-0-0-0-0-0-0-0-|-3--3-3-3-3-3-3-|-3-3-3-3-3-3-7-7-|


  Bb5                                G5                 C5
  Q  E E E E E E   E E E E E E E E   Q  E E E E E E   E Q  Q  E E E
|----------------|-----------------|----------------|---------------|
|----------------|-----------------|----------------|---------------|
|----------------|-----------------|----------------|---5--5--5-5-5-|
|-8--8-8-8-8-8-8-|-8-8-8-8-8-8-8-8-|-5--5-5-5-5-5-5-|-x-5--5--5-5-5-|
|-8--8-8-8-8-8-8-|-8-8-8-8-8-8-8-8-|-5--5-5-5-5-5-5-|-x-3--3--3-3-3-|
|-8--8-8-8-8-8-8-|-8-8-8-8-8-8-8-8-|-5--5-5-5-5-5-5-|-x-------------|


 Chorus
  D5                              F5 D5F5 D5F5D5  F5 D5F5 D5F5G5
  Q  E Q  E E E   Q  E Q  E E E   Q  E Q  E E E   Q  E Q  E E E
|---------------|---------------|---------------|---------------|
|---------------|---------------|---------------|---------------|
|-7----7----7---|-7----7----7---|---------------|---------------|
|-7--0-7--0-7-0-|-7--0-7--0-7-0-|-3--0-3--0-3-0-|-3--0-3--0-3-5-|
|-5--0-5--0-5-0-|-5--0-5--0-5-0-|-3--0-3--0-3-0-|-3--0-3--0-3-5-|
|----0----0---0-|----0----0---0-|-3--0-3--0-3-0-|-3--0-3--0-3-5-|


  Bb5D5Bb5D5BbD5  Bb5D5Bb5D5BbD5  G5 D5G5 D5G5D5  G5A5
  Q  E Q  E E E   Q  E Q  E E E   Q  E Q  E E E   E E E E E E E E
|---------------|---------------|---------------|-----------------|
|---------------|---------------|---------------|-----------------|
|---------------|---------------|---------------|-----------------|
|-8--0-8--0-8-0-|-8--0-8--0-8-0-|-5--0-5--0-5-0-|-5-7-7-7-7-7-7-7-|
|-8--0-8--0-8-0-|-8--0-8--0-8-0-|-5--0-5--0-5-0-|-5-7-7-7-7-7-7-7-|
|-8--0-8--0-8-0-|-8--0-8--0-8-0-|-5--0-5--0-5-0-|-5-7-7-7-7-7-7-7-|


   Bridge
    N.C.
    Gtr III
    E E E E E E E E   E E E E  E  E  E  E
||------------------|---------------------|
||o-----------------|---------------------|
||--7-7-7-7-7-7-7-7-|-9-9-9-9-10-10-10-10-|
||--x-x-x-x-x-x-x-x-|-x-x-x-x--x--x--x--x-|
||o-5-5-5-5-5-5-5-5-|-7-7-7-7--8--8--8--8-|
||------------------|---------------------|


  E E E E E E E E   E E E E  E  E  E  E   3x
|-----------------|-----------------------||
|-----------------|----------------------o||
|-7-7-7-7-7-7-7-7-|-9-9-9-9-10-10-10-10---||
|-x-x-x-x-x-x-x-x-|-x-x-x-x--x--x--x--x---||
|-5-5-5-5-5-5-5-5-|-7-7-7-7--8--8--8--8--o||
|-----------------|-----------------------||


                                                            D5
                                                            Gtr II
  E E E E E E E E   E E E E  E  E  E  E   E E E E E E E E   Q  H.
|-----------------|---------------------|-----------------|----------|
|-----------------|---------------------|-----------------|----------|
|-7-7-7-7-7-7-7-7-|-9-9-9-9-10-10-10-10-|-7-7-7-7-7-7-7-7-|----------|
|-x-x-x-x-x-x-x-x-|-x-x-x-x--x--x--x--x-|-x-x-x-x-x-x-x-x-|-0--------|
|-5-5-5-5-5-5-5-5-|-7-7-7-7--8--8--8--8-|-5-5-5-5-5-5-5-5-|-0--------|
|-----------------|---------------------|-----------------|-0--------|


 Pre-Chorus
                                     F5                           A5
  Q  E E E E E E   E E E E E E E E   Q  E E E E E E   E E E E E E E E
|----------------|-----------------|----------------|-----------------|
|----3-3-3-3-3-3-|-3-3-3-3-3-3-3-3-|----------------|-----------------|
|-7--2-2-2-2-2-2-|-2-2-2-2-2-2-2-2-|----------------|-----------------|
|-7--0-0-0-0-0-0-|-0-0-0-0-0-0-0-0-|-3--3-3-3-3-3-3-|-3-3-3-3-3-3-7-7-|
|-5--0-0-0-0-0-0-|-0-0-0-0-0-0-0-0-|-3--3-3-3-3-3-3-|-3-3-3-3-3-3-7-7-|
|----0-0-0-0-0-0-|-0-0-0-0-0-0-0-0-|-3--3-3-3-3-3-3-|-3-3-3-3-3-3-7-7-|


  Bb5                                G5                 C5
  Q  E E E E E E   E E E E E E E E   Q  E E E E E E   E Q  Q  E E E
|----------------|-----------------|----------------|---------------|
|----------------|-----------------|----------------|---------------|
|----------------|-----------------|----------------|---5--5--5-5-5-|
|-8--8-8-8-8-8-8-|-8-8-8-8-8-8-8-8-|-5--5-5-5-5-5-5-|-x-5--5--5-5-5-|
|-8--8-8-8-8-8-8-|-8-8-8-8-8-8-8-8-|-5--5-5-5-5-5-5-|-x-3--3--3-3-3-|
|-8--8-8-8-8-8-8-|-8-8-8-8-8-8-8-8-|-5--5-5-5-5-5-5-|-x-------------|


 Chorus
  D5                              F5 D5F5 D5F5D5  F5 D5F5 D5F5G5
  Q  E Q  E E E   Q  E Q  E E E   Q  E Q  E E E   Q  E Q  E E E
|---------------|---------------|---------------|---------------|
|---------------|---------------|---------------|---------------|
|-7----7----7---|-7----7----7---|---------------|---------------|
|-7--0-7--0-7-0-|-7--0-7--0-7-0-|-3--0-3--0-3-0-|-3--0-3--0-3-5-|
|-5--0-5--0-5-0-|-5--0-5--0-5-0-|-3--0-3--0-3-0-|-3--0-3--0-3-5-|
|----0----0---0-|----0----0---0-|-3--0-3--0-3-0-|-3--0-3--0-3-5-|


  Bb5D5Bb5D5BbD5  Bb5D5Bb5D5N.C.     D5N.CD5N.D5  N.CD5N.C.
  Q  E Q  E E E   Q  E Q  E E E   Q  E Q  E E E   Q  E Q  E E E
|---------------|---------------|---------------|---------------|
|---------------|---------------|---------------|---------------|
|---------------|-----------5-6-|-7----7----7---|-7----7--7-7-7-|
|-8--0-8--0-8-0-|-8--0-8--0-x-x-|-x--0-x--0-x-0-|-x--0-x--x-x-x-|
|-8--0-8--0-8-0-|-8--0-8--0-3-4-|-5--0-5--0-5-0-|-5--0-5--5-5-5-|
|-8--0-8--0-8-0-|-8--0-8--0-----|----0----0---0-|----0----------|


 Outro
  D5                N.C.
  E E E E E E E E   E E E E E E E E
|-----------------|-----------------|
|-----------------|-----------------|
|-----------------|-7-7-7-7-7-7-7-7-|
|-0-0-0-0-0-0-0-0-|-x-x-x-x-x-x-x-x-|
|-0-0-0-0-0-0-0-0-|-5-5-5-5-5-5-5-5-|
|-0-0-0-0-0-0-0-0-|-----------------|


  F5                N.C.
  E E E E E E E E    E  E  E  E  E  E  E  E
|-----------------|-------------------------|
|-----------------|-------------------------|
|-----------------|-10-10-10-10-10-10-10-10-|
|-3-3-3-3-3-3-3-3-|--x--x--x--x--x--x--x--x-|
|-3-3-3-3-3-3-3-3-|--8--8--8--8--8--8--8--8-|
|-3-3-3-3-3-3-3-3-|-------------------------|


  Bb5               N.C.                  G5                  A5
  E E E E E E E E    E  E  E  E E E E E   E E E E E E E E   E E E E E E E E
|-----------------|---------------------|-----------------|-----------------|
|-----------------|---------------------|-----------------|-----------------|
|-----------------|-10-10-10-10-9-9-9-9-|-----------------|-----------------|
|-8-8-8-8-8-8-8-8-|--x--x--x--x-x-x-x-x-|-5-5-5-5-5-5-5-5-|-5-7-7-7-7-7-7-7-|
|-8-8-8-8-8-8-8-8-|--8--8--8--8-7-7-7-7-|-5-5-5-5-5-5-5-5-|-5-7-7-7-7-7-7-7-|
|-8-8-8-8-8-8-8-8-|---------------------|-5-5-5-5-5-5-5-5-|-5-7-7-7-7-7-7-7-|


  D5
  W          +W           +W           +W
|----------|------------|------------|--------*|
|----------|------------|------------|--------*|
|----------|------------|------------|--------*|
|-0--------|-(0)--------|-(0)--------|-(0)----*|
|-0--------|-(0)--------|-(0)--------|-(0)----*|
|-0--------|-(0)--------|-(0)--------|-(0)----*|


Duration Legend
---------------
W - whole; H - half; Q - quarter; E - 8th; S - 16th; T - 32nd; X -
64th; a - acciaccatura
+ - note tied to previous; . - note dotted; .. - note double dotted
Uncapitalized letters represent notes that are staccato (1/2 duration)
Irregular groupings are notated above the duration line
Duration letters will always appear directly above the note/fret
number it represents the
duration for.  Duration letters with no fret number below them
represent rests.  Multi-
bar rests are notated in the form Wxn, where n is the number of bars
to rest for.  Low
melody durations appear below the staff

Tablature Legend
----------------
 h   - hammer-on
 p   - pull-off
 b   - bend
 pb  - pre-bend
 r   - bend release (if no number after the r, then release immediately)
 /\  - slide into or out of (from/to "nowhere")
 s   - legato slide
 S   - shift slide
  - natural harmonic
[n]  - artificial harmonic
n(n) - tapped harmonic
 ~   - vibrato
 tr  - trill
 T   - tap
 TP  - trem. picking
 PM  - palm muting
\n/  - tremolo bar dip; n = amount to dip
 \n  - tremolo bar down
 n/  - tremolo bar up
/n\  - tremolo bar inverted dip
 =   - hold bend; also acts as connecting device for hammers/pulls
 <>  - volume swell (louder/softer)
 x   - on rhythm slash represents muted slash
 o   - on rhythm slash represents single note slash

Misc Legend
-----------
 |  - bar
||  - double bar
||o - repeat start
o|| - repeat end
*|  - double bar (ending)
 :  - bar (freetime)
 $  - Segno
 &  - Coda
Tempo markers -  = BPM(8/16=s8/s16), where s8 = swing
8ths, s16 = swing 16ths





Comments


Popular Papa Roach tabs & chords
Revenge Bass Tabs
She Loves Me Not 3 Bass Tabs
Blood Brothers 2 Tabs
Done With You 1 Tabs
Infest Tabs
Life Is A Bullet 2 Tabs
Lifeline 3 Tabs
Lovehatetragedy Tabs
No Matter What 2 Tabs
What Do You Do Intro Tabs


Song lyrics



↑ Back to top | Tablatures and chords are parodies/interpretations of the original songs. You may use it for private study, scholarship, research or language learning purposes only
© 2014 AZChords.com Contact us | Privacy policy | DMCA | Add/correct tabs | Request tabs | Top 50 tabs