» » »

Getting Away With Murder Bass tabs (ver.3)

Artists:  A B C D E F G H I J K L M N O P Q R S T U V W X Y Z # 

Getting Away With Murder Bass tabs (ver.3)

Papa Roach
Rating:
0/5 (0 votes)

Hard to play? Try these video lessons and learn fast.
                Drop C


Intro

G|--------------------------------------------------------|
D|--------------------------------------------------------|
A|-----3------3------3------3-------3-------3-------3-----|
c|-0-0--0-0-0--0-0-0---0-0-0--0-0-0---0-0-0---0-0-0---0-0-|

Verse

G|---------------------------------------------------------|
D|---------------------------------------------------------|
A|---------------------------------------------------------|
c|-0-0-0-0-0-3-0-3---7-7-7-7-7-7-10-7---8-8-8-8-8-8-8-10---|


G|---------------------|
D|---------------------|
A|---------------------| X4
c|-7-7-7-7-7-7-7-5-3---|


Chorus

G|----------------------------------------------------------------------|
D|----------------------------------------------------------------------|
A|----------------------------------------------------------------------|
c|-0-0-0-0-0-0-0-0---8-8-8-8-8-8-8-8---5-5-5-5-5-5-5-5---1-1-1-1-1-1-1-1|

G|-----------------------------------------------------------------|
D|-----------------------------------------------------------------|
A|-----------------------------------------------------------------|
c|-0-0-0-0-0-0-0-0---8-8-8-8-8-8-8-8---3-3-3-3-3-3-3-3---1-1-1-1-1-|

Intro

G|---------------|
D|---------------|
A|-----3------3--|
c|-0-0--0-0-0--0-|


Verse

G|---------------------------------------------------------|
D|---------------------------------------------------------|
A|---------------------------------------------------------|
c|-0-0-0-0-0-3-0-3---7-7-7-7-7-7-10-7---8-8-8-8-8-8-8-10---|


G|---------------------|
D|---------------------|
A|---------------------| X2
c|-7-7-7-7-7-7-7-5-3---|

Chorus

G|----------------------------------------------------------------------|
D|----------------------------------------------------------------------|
A|----------------------------------------------------------------------|
c|-0-0-0-0-0-0-0-0---8-8-8-8-8-8-8-8---5-5-5-5-5-5-5-5---1-1-1-1-1-1-1-1|

G|-----------------------------------------------------------------|
D|-----------------------------------------------------------------|
A|-----------------------------------------------------------------|
c|-0-0-0-0-0-0-0-0---8-8-8-8-8-8-8-8---3-3-3-3-3-3-3-3---1-1-1-1-1-|

Intro

G|--------------------------------------------------------|
D|--------------------------------------------------------|
A|-----3------3------3------3-------3-------3-------3-----|
c|-0-0--0-0-0--0-0-0---0-0-0--0-0-0---0-0-0---0-0-0---0-0-|

Interlude

G|----------------------------------------------------|
D|----------------------------------------------------|
A|----------------------------------------------------|
c|-12--10-10-10--8-8-8--7-7-7--5--8-8-10-7~--3~-3-5-7~|

G|------------------------------------------------------------|
D|------------------------------------------------------------|
A|------------------------------------------------------------|
c|-12--10-10-10--8-8-8--7-7-7--5--8-8-10-7~--3~-3-5-7~-8-7-5-3|

Verse

G|---------------------------------------------------------|
D|---------------------------------------------------------|
A|---------------------------------------------------------|
c|-0-0-0-0-0-3-0-3---7-7-7-7-7-7-10-7---8-8-8-8-8-8-8-10---|


G|---------------------|
D|---------------------|
A|---------------------| X2
c|-7-7-7-7-7-7-7-5-3---|


Chorus

G|----------------------------------------------------------------------|
D|----------------------------------------------------------------------|
A|----------------------------------------------------------------------|
c|-0-0-0-0-0-0-0-0---8-8-8-8-8-8-8-8---5-5-5-5-5-5-5-5---1-1-1-1-1-1-1-1|

G|-----------------------------------------------------------------|
D|-----------------------------------------------------------------|
A|-----------------------------------------------------------------|
c|-0-0-0-0-0-0-0-0---8-8-8-8-8-8-8-8---3-3-3-3-3-3-3-3---1-1-1-1-1-|

G|------|
D|------|
A|------|
c|--/12-|

G|----------------------------------------------------------------------|
D|----------------------------------------------------------------------|
A|----------------------------------------------------------------------|
c|-0-0-0-0-0-0-0-0---8-8-8-8-8-8-8-8---5-5-5-5-5-5-5-5---1-1-1-1-1-1-1-1|

G|-----------------------------------------------------------------|
D|-----------------------------------------------------------------|
A|-----------------------------------------------------------------|
c|-0-0-0-0-0-0-0-0---8-8-8-8-8-8-8-8---3-3-3-3-3-3-3-3---1-1-1-1-1-|


Thnkz =)
this is the song for me
            
Hard to play? Try these video lessons and learn fast. | Correct




comments powered by Disqus
↑ Back to top | Tablatures and chords are parodies/interpretations of the original songs. You may use it for private study, scholarship, research or language learning purposes only