» » »

Papa Roach, Getting Away With Murder Bass tabs (ver.2)

Artists:  A B C D E F G H I J K L M N O P Q R S T U V W X Y Z # 

Getting Away With Murder Bass tabs (ver.2)

Papa Roach Tabs
 Rating:
4/5 (4 votes)
Getting Away With Murder lessons Tabs too difficult? Try these video lessons and learn fast
                Getting Away With Murder 4 string version by Alex Pearce.
(Standard Tuning E,A,D,G)


Intro + Bass Fill (long)
 
|-----------------|-----------------|-----------------|----------------|
|-----------------|-----------------|-----------------|----------------|
|-----3-------3---|-----3-------3---|-----3-------3---|-----3----------|
|-----------------|-----------------|-----------------|----------------|
|-1-1---1-1-1---1-|-1-1---1-1-1---1-|-1-1---1-1-1---1-|-1-1---1-1------|


   First 'intro verse' and 'heavy verse' See order
    
|------------------|-----------------------|
|------------------|-----------------------|
|------------------|-5-5-5-5-8-8-5-5-------|
|--1-1-1-1-1-1-1-1-|-----------------------|


|-----------------|------------------|
|-----------------|------------------|
|-6-6-6-6-6-6-6-8-|-5-5-5-5-8-8-8-8--|
|-----------------|------------------|


   Verse (lighter verse) see order
    
|------------------|-----------------------|
|------------------|-----------------------|
|------------------|-5-5-5-5-8-8-5-5-------|
|--1-1-1-1-1-1-1-1-|-----------------------|



|-----------------|------------------|
|-----------------|------------------|
|-6-6-6-6-6-6-6-8-|-5-5-5-5-5-5-5-5--|
|-----------------|------------------|


 Chorus
 
|--------------------------------------------------|
|--------------------------------------------------|
|--------------6--6-6-6-6--3--3-3-3-3--------------|
|--1--1-1-1-1--------------------------2--2-2-2-2--|

|--------------------------------------------------|
|--------------------------------------------------|
|--------------6--6-6-6-6--1--1-1-1-1--------------|
|--1--1-1-1-1--------------------------2--2-2-2-2--|
  


 Bass Fill (short) See order

|---------------------|
|------3-------3------|
|---------------------|
|--1-1---1-1-1---1----|


 Bass Semi-Solo
   
|---------------------|
|---------------------|
|---------------------|
|--8-8-6-6-4-4-3-3----|

|---------------------|
|---------------------|
|---------------------|
|--4-4-6-6-3-3-3-3----|

|-----------------------|
|-----------------------|
|-----------------------| 
|--11111111-33333333----| - (The fourth time you do this part here, change the last four
3's into four 4's. see e.g)
                          
e.g E--11111111-33334444-|

Order
Intro + Bass Fill (long) x1
Intro verse (heavy verse) x2
Verse (lighter) x2
Chorus x1
Bass Fill (short)
Verse (lighter) x2
Chorus x1
Intro + Bass Fill (long) x1
Bass Semi Solo x4
Chorus x2 (there's a break which sounds like the bass fill, but its just the drums)
(then play) Chorus x2 (Again, thats it.
            
Submit corrections

comments powered by Disqus
↑ Back to top | Papa Roach Bass for Getting Away With Murder. Lyrics for acoustic guitar and electric guitar. Tablatures and chords are parodies/interpretations of the original songs. You may use it for private study, scholarship, research or language learning purposes only