» » »

Papa Roach, Getting Away With Murder Bass tabs (ver.1)

Artists:  A B C D E F G H I J K L M N O P Q R S T U V W X Y Z # 

Getting Away With Murder Bass tabs (ver.1)

Papa Roach Tabs
Rating:
0/5 (0 votes)
Getting Away With Murder lessons Tabs too difficult? Try these video lessons and learn fast
                drop c tuning
f----
c----
g--5-
c00-0
bass part time 4 when guitar come in it changes to the same thing as        the verse


verse
f-----------------------------------------|
c-----------------------------------------|
g------5--------5----------5--------- x 2-|
c0000000-555555---7777777----99997777-----|

chorus
f-----------------------------------------------------------------|
c-----------------------------------------------------------------|
g-----------------------------------------------------------------|
c55--------88----66-----33-3-33---33--66--44--11-1-11 ( 1s not 11-|s

verse
f----
c----
g--5-
c00-0


verse
f-------------------------------------------|
c-------------------------------------------|
g------5--------5----------5----------- x 2-|
c0000000-555555---7777777----9999777750-----|

chorus

f-----------------------------------------------------------------|
c-----------------------------------------------------------------|
g-----------------------------------------------------------------|
c55--------88----66-----33-3-33---33--66--44--11-1-11 ( 1s not 11-|s


bridge 1 (getting away )

verse
f----
c----
g--5- x 6
c00-0
f-------------------------------------------------|
c-------------------------------------------------|
g-------------------------------------------  x 2-|
c12-10-8-66-444-10-8-6-44-22-3333333-5555555------|


then just do the chorus a few times and end on
f---------------|
c---------------|
g---------------|
c0 or 5 not sure
            

comments powered by Disqus
↑ Back to top | Papa Roach Bass for Getting Away With Murder. Lyrics for acoustic guitar and electric guitar. Tablatures and chords are parodies/interpretations of the original songs. You may use it for private study, scholarship, research or language learning purposes only