» » »

Papa Roach, Forever Tabs (ver.5)

Artists:  A B C D E F G H I J K L M N O P Q R S T U V W X Y Z # 

Forever Tabs (ver.5)

Papa Roach Tabs
Rating:
0/5 (0 votes)
Forever lessons Tabs too difficult? Try these video lessons and learn fast
                Tuning: Drop D (DADGBe)

I know the Intro and Chorus are pretty much dead on, 
the interlude part sounds ok but suggestions on tweaks are
welcome!

Intro
e|-------------------------|-----------|-------------|
B|--11-11-11-10----10--8---|-----------|-------------|
G|--------------10-------9-|-9~-7-9-10-|-10~-9-10-12-|
D|-------------------------|-----------|-------------|
A|-------------------------|-----------|-------------|
D|-------------------------|-----------|-------------|

Chorus
e|------------------------------------|--------|
B|------------------------------------|--------|
G|--777777--10101010------------------|--------|
D|--777777--10101010--10101010--88888-|-3-2-0~-|
A|--555555---8-8-8-8--10101010--88888-|-3-2-0~-|
D|--------------------10101010--88888-|-3-2-0~-|

Intro Part
e|-------------------------|-----------|-------------|
B|--11-11-11-10----10--8---|-----------|-------------|
G|--------------10-------9-|-9~-7-9-10-|-10~-9-10-12-|
D|-------------------------|-----------|-------------|
A|-------------------------|-----------|-------------|
D|-------------------------|-----------|-------------|

Chorus
e|------------------------------------|--------|
B|------------------------------------|--------|
G|--777777--10101010------------------|--------|
D|--777777--10101010--10101010--88888-|-3-2-0~-|
A|--555555---8-8-8-8--10101010--88888-|-3-2-0~-|
D|--------------------10101010--88888-|-3-2-0~-|

Interlude Part ''One Last Kiss...''
e|-------------------------------|
B|-------------------------------|
G|-----7------5------3-----------|
D|-3-2-7--3-2-5--3-2-3--3-2-5--7-| 2X
A|-3-2-5--3-2-3--3-2-1--3-2-5--7-|
D|-3-2----3-2----3-2----3-2-5--7-|

Chorus
e|------------------------------------|--------|
B|------------------------------------|--------|
G|--777777--10101010------------------|--------|
D|--777777--10101010--10101010--88888-|-3-2-0~-|
A|--555555---8-8-8-8--10101010--88888-|-3-2-0~-|
D|--------------------10101010--88888-|-3-2-0~-|

Interlude Part Again/With Chorus 

Play over the top of each other obviously youd have to use two 
guitars, or just play the chorus on it's own or the Interlude part.

End Interlude
e|-------------------------------|
B|-------------------------------|
G|-----7------5------3-----------|
D|-3-2-7--3-2-5--3-2-3--3-2-5--7-| 2X
A|-3-2-5--3-2-3--3-2-1--3-2-5--7-|
D|-3-2----3-2----3-2----3-2-5--7-|

End Chorus
e|------------------------------------|--------|
B|------------------------------------|--------|
G|--777777--10101010------------------|--------|
D|--777777--10101010--10101010--88888-|-3-2-0~-|
A|--555555---8-8-8-8--10101010--88888-|-3-2-0~-|
D|--------------------10101010--88888-|-3-2-0~-|
            

comments powered by Disqus
↑ Back to top | Papa Roach Tabs for Forever. Lyrics for acoustic guitar and electric guitar. Tablatures and chords are parodies/interpretations of the original songs. You may use it for private study, scholarship, research or language learning purposes only